Song name
# A B C D E F G H I J K L M N O P Q R S T U V W X Y Z

Bto - Takin Care Of Business tab

Help us improve GuitareTab! Take a short survey!
-------------------------------------------------------------------------------
			     SONG NAME - Band Name
-------------------------------------------------------------------------------
Tabbed by: Eddie  Rock on
Email: ejkirkland@msn.com

Tuning: Standard
www.btorocks.com
e|-----------------------------------------------------------------------------|
B|-----------------------------------------------------------------------------|
G|-----------------------------------------------------------------------------|
D|--------------------------------------------------10--10--12--10--10-10-12---|
A|-10--10--12--10--10--12-----8--8--10--8--8--10-----8---8---8---8---8-8--8----|
E|-8---8---8---8---8---8------6--6--6---6--6--6--------------------------------|

e|------------------------------12-12-12-12-12--------------------|
B|------------------------------11-11-11-11-11-----6--------------|
G|------------------------------12-12-12-12-12-----6/7------------|
D|-------------------------------------------------------8--6--8--|
A|--10--10--12--10--10--------------------------------------------|
E|--8---8---8---8---8---------------------------------------------|

e|--5-5-5-5-5----------------------------------------------------------------------------|
B|--4-4-4-4-4------9---------------------------------------------------------------------|
G|--5-5-5-5-5------9/10--9---------------------------------------------------------------|
D|--------------------------10-8-10-------8--10------------------------------------------|
A|------------------------------------10-------------------------------------------------|
E|-----------------------------------------------8---------------------------------------|

e|---------------------------------------------------------------------------|
B|---------------------------------------------------------------------------|
G|---------------------------------------------------------------------------|
D|---------------------------------------------------------------------------|
A|---------------------------------------------------------------------------|
E|---------------------------------------------------------------------------|
Related for Takin Care Of Business tab