Song name
# A B C D E F G H I J K L M N O P Q R S T U V W X Y Z

Bto - Takin Care Of Business tab

SUBJECT: BTAB: TAKIN' CARE OF BUSINNESS
ARTIST: BACHMAN TURNER OVRDRIVE
FROM: CYBERBASSIST@HOTMAIL.COM

MAIN RIFF:

    C                 Bb                  F                 C
G |------------------------------------------------------------------------|
D |------------------------------------------------------------------------|
A |-3-3----------------1-1----------------------------------3-3------------|
E |------5--3-3h5-3---------3--1-1h3-1----1-1-------------------5--3-3h5-3-|
B |--------------------------------------------3--1-1H3-1------------------|

BRIDGE
    C    F          D#   A#
G |--------------------------------------------------------------------|
D |-----------------1-1------------------------------------------------|
A |----------------------1-1-1-----------------------------------------|
E |------1-1-1---------------------------------------------------------|
B |-1-1----------------------------------------------------------------|

Listen to the song for perfect timing.
Any correction? Comments? email me at: cyberbassist@hotmail.com

enjoy!
Tap to rate this tab
 
# A B C D E F G H I J K L M N O P Q R S T U V W X Y Z