Song name
# A B C D E F G H I J K L M N O P Q R S T U V W X Y Z

Bubba Sparxxx - Deliverance tab

Deliverance By Bubba Sparxxx
tabbed by ryan ohallahan- shorty2533@hotmail.com email me to correct me if you think i got it wrong.

^ denotates up-strum

e---------------------------------|
B---------------------------------|
G---^---^-------^----^---^-----^--|
D-7-7-7-7-10-10-10-5-5-5-5-3-3-3--|
A-7-7-7-7-10-10-10-5-5-5-5-3-3-3--|
E-5-5-5-5-8--8--8--3-3-3-3-1-1-1--|

guitar2
e|--------------------------------|
B|---^---^------------------------|
G|-2-2-2-2-----^----^---^-----^---|
D|-2-2-2-2-2-2-2--0-0-0-0-3-3-3---|
A|-0-0-0-0-3-3-3--2-2-2-2-3-3-3---|
E|---------0-0-0--3-3-3-3-1-1-1---|
Tap to rate this tab
# A B C D E F G H I J K L M N O P Q R S T U V W X Y Z