Song name
# A B C D E F G H I J K L M N O P Q R S T U V W X Y Z

Bubba Sparxxx - Back In The Mud tab

Bubba Sparxxx - Back in the Mud


Intro / Entire song
e------5---6-5----------------------------------------------|
B--3-6---3-----6-3------------------------------------------|
G----------------------OR---------14----15-14---------------|
D---------------------------12-15----12-------15-12---------|
A-----------------------------------------------------------|
E-----------------------------------------------------------|

Chorus (all downstrokes)

e------------------------------------------------------------------------|
B------------------------------------------------------------------------|
G--7777777777777777-3333333333333333-------------------------------------|
D--7777777777777777-3333333333333333-3333333333333333-7777777777777777---|  x2
A--5555555555555555-1111111111111111-3333333333333333-7777777777777777---|
E------------------------------------1111111111111111-5555555555555555---|


Verse (Guitar 1 - palm muted, with random breaks)

e-----------------------------------------------------------------|
B-----------------------------------------------------------------|
G--7777777777777777-3333333333333333----------33333333------------|
D--7777777777777777-3333333333333333-33333333-33333333-77777777---|  x4
A--5555555555555555-1111111111111111-33333333-11111111-77777777---|
E------------------------------------11111111----------55555555---|


Verse (Guitar 2)

e---------------------------8---5--55555555------------------|
B---6~---7s8--6~---7s8--6~--8---5--55555555------------------|
G---7~---7----7~---7----7~-----------------------------------|
D------------------------------------------------------------|
A------------------------------------------------------------|
E------------------------------------------------------------|

Chorus

Verse

Chorus

Verse

Chorus x2

Outro - Repeat and fade

e-----------------------------------------------------------------|
B-----------------------------------------------------------------|
G-----------------------5~---2~-----------------------------------|
D---3~--4s5-3~--4s5-3~--------------------------------------------|
A-----------------------------------------------------------------|
E-----------------------------------------------------------------|
Tap to rate this tab
 
# A B C D E F G H I J K L M N O P Q R S T U V W X Y Z