Song name
# A B C D E F G H I J K L M N O P Q R S T U V W X Y Z

Bubble Puppy - Elizabeth tab

Intro
e|---------------------------------------------------------------------------|
B|-20-19---------------------------------------------------------------------|
G|-------20-19-19-20--17-19-15-17-14-15-17-19-20-19-17-15--------------------|
D|---------------------------------------------------------11-12-11-12-11-12-|
A|---------------------------------------------------------------------------|
E|---------------------------------------------------------------------------|

Verse
e|---------------------------------------------------------------------------|
B|---------------------------------------------------------------------------|
G|--14--9--11----9-9--11-11--10--10--9-10--11--------------------------------|
D|--14--9--11----9-9--11-11--10--10--9-10--11--------------------------------|
A|--12--7--9-----7-7--9--9---12--12--7-12--9---------------------------------|
E|---------------------------------------------------------------------------|

Intro Again

Bridge
e|---------------------------------------------------------------------------|
B|---------------------------------------------------------------------------|
G|-11--9----------------------5--5---11--9-----------------------------------|
D|-11--9----------------------5--5---11--9-----------------------------------|
A|-9---7----------------------3--3---9---7-----------------------------------|
E|---------------------------------------------------------------------------|
Tap to rate this tab
# A B C D E F G H I J K L M N O P Q R S T U V W X Y Z