Guitaretab - guitar tabs
Song name
# A B C D E F G H I J K L M N O P Q R S T U V W X Y Z

Bubble Puppy - Ive Got To Reach You tab

Bubble Puppy - Ive Got to Reach You
By:Andrew Mcshan(Guitarguyx182@aol.com)
Intro
e|---------------------------------------------------------------------------|
B|---------------------------------------------------------------------------|
G|-----5------5-----5^------5---5--------------------------------------------|
D|-5-7----5-7---5/7------7----7----------------------------------------------|
A|--------------------------------5-7--5-------------------------------------|
E|---------------------------------------------------------------------------|
Verse
e|---------------------------------------------------------------------------|
B|---------------------------------------------------------------------------|
G|-----------5h7h5-----------------------------------------------------------|
D|-7--7--5-7--------7h5-3--------x4-----9-10--7------------------------------|
A|-7--7-------------------3/5/3---------9-10--7------------------------------|
E|-5--5---------------------------------7-8---5------------------------------|
2nd Time
e|---------------------------------------------------------------------------|
B|---------------------------------------------------------------------------|
G|-7-9-10-12-0-9-7---5-7-9-10-12-10-9-7-5-9-10-12-10-9-7-5-7-5-7-9-5--x-2----|
D|---------------------------------------------------------------------------|
A|---------------------------------------------------------------------------|
E|---------------------------------------------------------------------------|
[ Tab from: http://www.guitaretab.com/b/bubble-puppy/33152.html ]
e|---------------------------------------------------------------------------|
B|---------------------------------------------------------------------------|
G|---------------------------------------------------------------------------|
D|-14--9-14-12-11------------------------------------------------------------|
A|-14--9-14-12-11------------------------------------------------------------|
E|-12--7-12-10-9-------------------------------------------------------------|

Verse

e|---------------------------------------------------------------------------|
B|---------------------------------------------------------------------------|
G|---------------------------------------------------------------------------|
D|--15--17-------------------------------------------------------------------|
A|--15--17-------------------------------------------------------------------|
E|--13--15-------------------------------------------------------------------|
 
Just Work Off This Scale
e|---------------------------------------------------------------------------|
B|---------------------------------------------------------------------------|
G|---------------------------------------------------------------------------|
D|---------17----------------------------13-15-14-15-13-15-16----------------|
A|-13-15------14--15-17-19-20^-19-13-15--------------------------------------|
E|---------------------------------------------------------------------------|
Bridge
e|---------------------------------------------------------------------------|
B|---------------------------------------------------------------------------|
G|---------------------------------------------------------------------------|
D|--10---7-------------------------------------------------------------------|
A|--10---7-------------------------------------------------------------------|
E|--8----5-------------------------------------------------------------------|
Related for Ive Got To Reach You tab