Song name
# A B C D E F G H I J K L M N O P Q R S T U V W X Y Z

Bubble - Cold Sun tab

Artist: Bubble 
Song: Cold Sun


Drop D Tuning


Intro  (0:00 - 0:41)
E|---------------------------------------|
B|---------------------------------------|
G|-----9----9----9--------9----9----9----| 8x
D|-------10---10---10-------10---10---10-|
A|--------------------8-8----------------|
D|-7-7-----------------------------------|


1. Solo (0:41 - 1:11)
E|---------------------------------------------------------------|
B|-----20b-----------20b-----------------------------------------|
G|-16b------14-16-17---------------------------------------------|
D|----------------------------------17b-17b--17b-14-12-----------|
A|-------------------------12-14-15--------------------15-12-15--|
D|---------------------------------------------------------------|

E|---------------------------------------------------20-20-17-15-|
B|---------------------------------------------------------------|
G|---------------------------------------------------------------|
D|----------17b-17b-----------17b--------14/17-17/19-------------|
A|-12-14-15----------12-14-15------12-14-------------------------|
D|---------------------------------------------------------------|

E|---------------------------------------------------------------|
B|----------20-20b-----------20b---------------------------------|
G|-14-16-17---------14-16-17-------------------------------------|
D|-----------------------------------------17b-17b-----------17b-|
A|--------------------------------12-14-15----------12-14-15-----|
D|---------------------------------------------------------------|

E|---------------------------------------------------------------|
B|----------20-20b-----------20b--20p19p17-----------------------|
G|-14-16-17---------14-16-17-------------------------------------|
D|-----------------------------------------14p12-----------------|
A|-----------------------------------------------12h14p12-20b----|
D|---------------------------------------------------------------|

E|---------------------------------------|
B|---------------------------------------|
G|-19b-19-17-19-14-17---------19b--------|
D|---------------------------------------|
A|---------------------------------------|
D|---------------------------------------|



Verse (1:11 - 1:39)
E|-----------------------------------|
B|-------20--------------------------|
G|-16-17------------19b--------------|
D|-----------------------------------|
A|-----------------------------------|
D|-----------------------------------|

E|-----------------------------------|
B|-----------------------------------|
G|-16h17-----------16h17-------------|
D|-----------------------------------|
A|-----------------------------------|
D|-----------------------------------|

E|-----------------------------------|
B|-----------------------------------|
G|-19b-------------------------------|
D|-----------------------------------|
A|-----------------------------------|
D|-----------------------------------|




Pause (1:39 - 2:18)




(2:18 - 2:32 )
E|-------------------------------------------|
B|-----9-----9------9------10-----10------10-|
G|-------------------------------------------|
D|-7-7---7-7---7--7----9-9----9-9----9--9----|
A|-------------------------------------------|
D|-------------------------------------------|




Clean (2:32 - 2:52)
E|------------------------------------------|
B|------------------------------------------|
G|-----9-------9--------------9------9------| x2
D|-------10-7----10-7------10---10-7---10-7-|
A|---------------------8-8------------------|
D|-7-7--------------------------------------|

E|-----------------------------------------------|
B|-----------------------------------------------|
G|---------------------------12-10-9-------------|
D|-14-15-15-14-12-10h12--------------------------|
A|------------------------10---------12-14-19-17-|
D|-----------------------------------------------|




(2:52-3:06)
E|--------------------------------------|
B|---------------20----------20b--------|
G|-19b-----16-17-------16-17--------19b-|
D|--------------------------------------|
A|--------------------------------------|
D|--------------------------------------|

E|-------------------------------------------------------------|
B|---------------20----------20b---20p19p17--------------------|
G|-19b-----16-17-------16-17-----------------------------------|
D|------------------------------------------14p12--------------|
A|------------------------------------------------12h14p12-20b-|
D|-------------------------------------------------------------|




Clean  (3:20 - 4:13)
E|---------------------------------------|
B|---------------------------------------|
G|-----9----9----9--------9----9----9----| 2x
D|-------10---10---10-------10---10---10-|
A|--------------------8-8----------------|
D|-7-7-----------------------------------|

E|---------------------------------------|
B|---------------------------------------|
G|-----8----8----8----------5-3--5-5-5-3-|  2x
D|-------11---11---11--------------------|
A|--------------------6-6-6--------------|
D|-6-6-----------------------------------|

E|---------------------------------------|
B|---------------------------------------|
G|-----9----9----9--------9----9----9----| 4x
D|-------10---10---10-------10---10---10-|
A|--------------------8-8----------------|
D|-7-7-----------------------------------|



Pause (3:13 - 5:08 )


(4:55-5:34)
E|-------------|
B|-------------|
G|-------------| 4x
D|----------14-|
A|-12-14-15----|
D|-------------|

E|---------------------------------------------------|
B|---------------------------------------------------|
G|---------------------------------------------------|
D|----------14-----------16-----------15-----------14|
A|-12-14-15-----12-14-15-----12-14-15-----12-14-15---|
D|---------------------------------------------------|

E|----------------------------------------|
B|----------------------------------------|
G|----------------------------------------|
D|-22-14------22-16------22-14------22-16-|
A|----------------------------------------|
D|----------------------------------------|



Solo (5:34-6:01)
E|--------------------------------------------------|
B|--------------------------------------------------|
G|----------------------------12-14-12-9-7----------|
D|-19-19-21-21b-19-17-14~--14--------------10-7h10b-|
A|--------------------------------------------------|
D|--------------------------------------------------|

E|-------------------------------------------------------------|
B|----------------------------------17-17-17-17h20-20-17p15-10-|
G|----------------------19-17-19-17----------------------------|
D|----14/17-17-19/22-22----------------------------------------|
A|-12----------------------------------------------------------|
D|-------------------------------------------------------------|

E|--------------------------------------------------------------------|
B|---10----12----13---------------13-20b--20p19p17--------------------|
G|-9----11----12----14-19-18---12------------------14p12--------------|
D|-------------------------------------------------------12h14p12-20b-|
A|--------------------------------------------------------------------|
D|--------------------------------------------------------------------|

E|-------------------------------------------|
B|-------------------------------------------|
G|-------------------------------------------|
D|----------14--14-14-17-17-15b--14b-14b-10b-|
A|-12-14-15----------------------------------|
D|-------------------------------------------|


(6:56 - 7:14)
E|---------------------------------------|
B|---------------------------------------|
G|-----9----9----9--------9----9----9----| 3x
D|-------10---10---10-------10---10---10-|
A|--------------------8-8----------------|
D|-7-7-----------------------------------|
Tap to rate this tab
 
# A B C D E F G H I J K L M N O P Q R S T U V W X Y Z