Song name
# A B C D E F G H I J K L M N O P Q R S T U V W X Y Z

Buck 65 - Kennedy Killed The Hat tab

Help us improve GuitareTab! Take a short survey!
I don't know how many people have ever heard this song, but this still needed to be done.
This is Bass and the limited Guitar that appears in the song.

Main Bass Riff (Guitar Can Play As Well)
G|-------------------------|
D|-------------------------|
A|-2--5-2--5b-2------5555--|
E|--------------4444-------|

Chorus Bass Riff
G|----------------------------------------------------|
D|----6-6------------------9--9-----------------------|
A|--77-7-77--99999999--1010-10-1010--1212121212121212-|
E|----------------------------------------------------|

Chorus Guitar Riff
E|--------------------------------------------------------------------|
B|--------------------------------------------------------------------|
G|-9-Let-Ring-11-Let-Ring-12-Let-Ring-14-14-14-14-14-14-14141414------|
D|-9----------9-----------10----------12-12-12-12-12-12-12121212------|
A|-7----------9-----------10----------12-12-12-12-12-12-12121212------|
E|--------------------------------------------------------------------|

Bridge Bass
G|----------------------------------------------|
D|----------------------------------------------|
A|-77777777-33333333-77777777-33333333-55555555-|
E|----------------------------------------------|

Bridge Guitar
e|--------------------------------------------------------------|
B|--------------------------------------------------------------|
G|--9-Let-Ring--5-Let-Ring--9-Let-Ring--5-Let-Ring--7-Let-Ring--|
D|--9-----------5-----------9-----------5-----------7-----------|
A|--7-----------3-----------7-----------3-----------5-----------|
E|--------------------------------------------------------------|

And That's It.
Related for Kennedy Killed The Hat tab