Song name
# A B C D E F G H I J K L M N O P Q R S T U V W X Y Z

Buck 65 - Heather Nights tab

Think this is all correct.


Intro:

  Em        Am      B7     B7    Em     Am      B7     Em
|---------------------------------------------------------|
|---------------------------------------------------------|
|---------------------------------------------------------|
|----------(7)/10-9-----------------------------9-10-9----|
|--7--9-10-----------7-9-10-9----7--9-10----7-6--------7--|
|----------------------------------------8----------------|

Verse:

Repeat above chords.


Chorus:

N.C.

|-------------------------------------------------------|
|-------------------------------------------------------|
|-------------------------------------------------------|
|----------(7)/10-9--------------------(7)/10-7---------|
|--7--9-10-----------7-9-10-/7--7-9-10----------9-10-7--|
|-------------------------------------------------------|


Interlude:

--------------------------------------------|
|-------------------------------------------|
|-------------------------------------------|
|----------(7)/10-9-------------------------|
|--7--9-10-----------7-9-10-9--7-9-(10)\7---|
|-------------------------------------------|

Final Chorus:

Em  G   Am  B7

Em  Am  B7  Em

Ending:

(Whistling)

|-----------------------------------------------------------|
|-----------------------------------------------------------|
|-----------------------------------------------------------|
|----------(7)/10-9--------------------(7)/10-9-------------|
|--7--9-10-----------7-9-10-9--7-9-10-----------9h10-9-6-7--|
|-----------------------------------------------------------|


Em
Tap to rate this tab
 
# A B C D E F G H I J K L M N O P Q R S T U V W X Y Z