Guitaretab - guitar tabs
Song name
# A B C D E F G H I J K L M N O P Q R S T U V W X Y Z

Buck O Nine - Im Not Dead tab

Song: Iím not dead
Band: Buck-o-nine
Album: Sustain
Year: 2007
Contact: s_kanary@hotmail.com

My first tab! There isnít a lot of buck-o-nine on this site. I love their new album and
opening song sounds really cool. There are probably other ways of playing it, but this
right. You may have to listen to figure out how many times each chord is played. Let me 
if thereís any mistakes or if you know how to play the ska parts! Haha. This riff is
throughout the song too. I might tab out the chorus too.
[ Tab from: http://www.guitaretab.com/b/buck-o-nine/163729.html ]
e-|--------------------------------------------------------------|
B-|7-7-7-7-7-7-10ó10-10-10-10-10-10-12-12-12-12-12-12-7-7-7-7-7-7|
G-|5-5-5-5-5-5-8--8--8--8--8ó-8ó-8--10-10ó10-10-10-10-5-5-5-5-5-5| x 3
D-|--------------------------------------------------------------|
A-|--------------------------------------------------------------|
E-|--------------------------------------------------------------|

Last time:

e-|------------------------------|
B-|7-7-7-7-7-7-10-10-10-10-10-10-|
G-|5-5-5-5-5-7-8--8--8--8--8ó-8--| x 1
D-|------------------------------|
A-|------------------------------|
E-|------------------------------|


Then little solo

e-|-------------------|
B-|-------------------|
G-|-------------------|
D-|-------------------|
A-|-3-3-1-3-1---------|
E-|-----------1-1-1-3-|


Chorus:


e-|--------------------------------------------------------------|
B-|--------------------------------------------------------------|
G-|--------------------------------------------------------------| x 4
D-|--------------------------------------------------------------|
A-|-8-8-xxxx-7-7-xxxx-10-10-10-10-10-10-10-10--------------------|
E-|-6-6-xxxx-5-5-xxxx-8--8--8--8--8--8--8--8---------------------|
                ^^^^         ^^^^
Then go into intro after this.
Related for Im Not Dead tab