Song name
# A B C D E F G H I J K L M N O P Q R S T U V W X Y Z

Buck - Samaritan tab

Song: Samaritan

Band: Buck

Album: Buck

tabbed by: Mark, who steals all info from his bass teacher Mike.

Verse:

G:----------------0--------------------------------0---------------

D:------------02-----------------0-----------02-----------------------

A:---33-33-----------------02-----33-33----------------0-2--------------------

E:-------------------33-33--------------------------44-3-----------------

Sometimes he leaves the 0-2 at the end off.

Chorus: Play A, B, C, C, A, B, C, C, A, B, C, C, A, B (I think that's right)

Riff A:  (You might need to add A, B, C, C there ^, but I don't think so.)

G:----------------------------------------------------------------

D:----5--353--------------------------------------------------

A:------5-----5--------------------------------------------------

E:--3---------------------------------------------------------

Riff B:

G:---------------------------------------------------------------

D:----7--575---------------------------------------------------------

A:------7-----7----------------------------------------------------

E:--5-------------------------------------------------------------

Riff C:

G:---------------------------------------------------------------

D:----9--797---------------------------------------------------------

A:------9-----9----------------------------------------------------

E:-7--------------------------------------------------------------

Bridge/Ending:

G:---------------------------------------------------------------

D:---------------------------------------------------------------

A:--33-----------------3---------------------------------------

E:------33-44-11-3-------------------------------------------

That's it. Comments, corrections, complaints, or anything else can be sent to

sittingcow@aol.com
Tap to rate this tab
# A B C D E F G H I J K L M N O P Q R S T U V W X Y Z