Song name
# A B C D E F G H I J K L M N O P Q R S T U V W X Y Z

Buckcherry - Sorry Acoustic tab

Help us improve GuitareTab! Take a short survey!
This Is The Real Deal! I got it from Buckcherry themselves!

INTRO
e|--------------------------|-
B|--3-----3-----3-----3-----| -
G|--0-----0-----2-----2-----|  -
D|--------------------------|  -x2
A|--------------------------| -
E|-----3-----3-----3-----3--|-
|
|
|
e|----------------|
B|--3-----3-------|
G|--0-----0-------|
D|----------------|   X2
A|----------------|
E|----3------3----|




________________________^ Do This Twice ^_______________________________



PRE-CHORUS
e|---------------------------------------|
B|------3-----------3-----------3--------|
G|--------4-----------4-----------4------|
D|----4-----4-----4-----4-----4-----4-4--|
A|--2-----------0------------------------|
E|--------------------------3------------|




e|--------------------------|
B|--3-----3-----3-----3-----|
G|--2-----2-----2-----2-----|
D|-----0-----0-----0-----0--|
A|--------------------------|
E|--------------------------|



e|--------------------------|
B|--3-----3-----3-----3-----|
G|--4-----4-----4-----4-----|
D|-----2-----2-----0-----0--|
A|--------------------------|
E|--------------------------|



e|--------------------------|
B|--3-----3-----3-----3-----|
G|--4-----4-----4-----4-----|
D|-----3-----3-----3-----3--|
A|--------------------------|
E|--------------------------|






e|---------------------------------------|
B|------3-----------3-----------3--------|
G|--------4-----------4---2-------2---2--|
D|----4-----4-----4-----4-----4-----4----|
A|--2-----------0------------------------|
E|--------------------------3------------|





e|--------------------------|
B|--3-----3-----3-----3-----|
G|--4-----4-----4-----4-----|
D|-----2-----2-----0-----0--|
A|--------------------------|
E|--------------------------|




e|--------------------------|
B|--0-----0-----0-----3-----|
G|--1-----1-----1-----4-----|
D|-----0-----0-----0-----0--|
A|--------------------------|
E|--------------------------|
Related for Sorry Acoustic tab