Guitaretab - guitar tabs
Song name
# A B C D E F G H I J K L M N O P Q R S T U V W X Y Z

Buckcherry - Whiskey In The Morning tab

-----------------------------------------------------------------------
WHISKEY IN THE MORNING - Buckcherry
-----------------------------------------------------------------------
Album: Time Bomb
Tabbed by: Eaglesrule8120
Email: Eaglesrule8120@yahoo.com

Tuning: Standard (EADGBe)

OK, this is just the rhythm part, Iím too lazy to work on the
fills right now. Fun song though

Intro/Verse
  The first notes are the lead in, only play them the first time
			
e|----------------------|    
B|----------------------|
G|----------------------|
D|-2-2-2-4-4-4-2-4-2-4--|
A|-2-2-2-4-4-4-2-4-2-4--|
E|-0-0-0-2-2-2-0-2-0-2--| 
      
e|-----0------------0-------|    
B|-----0------------0-------|
G|-2---0-2---22-4---0-4-----|
D|-2-----2---22-4-----4-----|
A|-0-----0---00-2-----2-----|
E|--------------------------|

Chorus
[ Tab from: http://www.guitaretab.com/b/buckcherry/110597.html ]
e|-----------------------------------------|    
B|-----------------------------------------|
G|-5---5-5----7---7-7----2---2-2-2-2-2-2-2-|
D|-5---5-5----7---7-7----2---2-2-2-2-2-2-2-|
A|-3---3-3----5---5-5----0---0-0-0-0-0-0-0-|
E|-----------------------------------------| x3

e|------------------------------------------|
B|------------------------------------------|
G|-4-4-4-2---4--4-4-2---4--4-4-2---4--4-4-2-|
D|-4-4-4-2---4--4-4-2---4--4-4-2---4--4-4-2-|
A|-2-2-2-0---2--2-2-0---2--2-2-0---2--2-2-0-|
E|------------------------------------------|

Bridge

e|-------------------------------|
B|-------------------------------|
G|-2---2---2---2---2---2---2-----|
D|-2---2---2---2---2---2---2---2-|
A|-0---0---0---0---0---0---0---2-|
E|-----------------------------0-|

And there you have it. The order goes:

	Intro/Verse x2
	Chorus x1
	Intro/Verse x2
	Chorus x1
	Fill/Solo Thingy (not complete)
	Chorus x1
	Bridge x1
	Intro x1
	
Enjoy. Buckcherry kicks ass

| /  slide up
| \  slide down
| h  hammer-on
| p  pull-off
| ~  let ring
| +  harmonic
| x  Mute note
  .  Palm Mute 
=======================================================================
Related for Whiskey In The Morning tab