Song name
# A B C D E F G H I J K L M N O P Q R S T U V W X Y Z

Buckcherry - Too Drunk tab


intro:
gtr 1
|--------------------------|-----------|-----------------|
|--------------------------|-----------|-----------------|
|--------------------------|-----------|-----------------|
|-----3--5--5b(5r)p3-------|- play 3x -|---3---3---------|
|--5------------------5p3--|-----------|-5---5---5--3----|
|--------------------------|-----------|--------------5--|

gtr 2
|-----------------------------|-----------|----------------------|
|-----------------------------|-----------|----------------------|
|-----10-12-12b(12r)p10-------|-----------|----10----10----------|
|--12-------------------12p10-|- play 3x -|-12----12----12-10----|
|-----------------------------|-----------|-------------------12-|
|-----------------------------|-----------|----------------------|


verse is the same as the intro except the last part is:
|-----------------|               |----------------------|
|-----------------|               |----------------------|
|-----------------|               |----------------------|
|-----------------|  and          |-------------10-------|
|-----------3-----|               |-12--12--12------12---|
|--5--5--5-----5--|               |----------------------|


chorus:
|-------------------------|-----------------------------------------------|
|-------------------------|-----------------------------------------------|
|------7---------2----5---|-7-7-x-x-x-x-----------------------------3p0---|
|-5----7----5----2----5---|-7-7-x-x-x-x-3-3-x-x-x-x-5-5-x-x-x-x-x-x-----3-|
|-5----5----5----0----3---|-5-5-x-x-x-x-3-3-x-x-x-x-5-5-x-x-x-x-x-x-------|
|-3---------3-------------|-------------1-1-x-x-x-x-3-3-x-x-x-x-x-x-------|
  8x   8x   8x   4x   4x

|-------------------------------------------|
|-------------------------------------------|
|-7-7-x-x-x-x-------------------------------|
|-7-7-x-x-x-x-3-3-x-x-x-x----3---3----------|
|-5-5-x-x-x-x-3-3-x-x-x-x--5---5----5--3----|
|-------------1-1-x-x-x-x----------------5--|


verse 2 is the same except gtr 1 plays this the first time:
|-------------------------|--------------------------|
|-------------------------|--------------------------|
|-------------------------|--------------------------|
|----3--5--5b(5r)p3-------|-----------5b(5r)p3-------|
|--5-----------------5p3--|--5--3--2------------5p3--|
|-------------------------|--------------------------|

repeat chorus

solo:
|------------------------------------|----10-13b-13b-13r-10-------------|
|-----------------------10----10-13b-|-13-------------------13b-13r-10--|
|-----------------------10-12--------|----------------------------------|
|-----------------10-12--------------|----------------------------------|
|-----3-5-8-10-12--------------------|----------------------------------|
|-3-5--------------------------------|----------------------------------|

|----------------------------------------|-------15b-15-15-15------15b-|
|-----13-10-13-----13-10-13-----13-10-13-|----13-----------------------|
|-12b----------12b----------12b----------|-14------------------14------|
|----------------------------------------|-----------------------------|
|----------------------------------------|-----------------------------|
|----------------------------------------|-----------------------------|

|-13-15-13h15----|----13----18b--18b-18-15-15h18p15------------------|
|-------------15-|-15----15--------------------------18-18b-----/22--|
|----------------|---------------------------------------------------|
|----------------|---------------------------------------------------|
|----------------|---------------------------------------------------|
|----------------|---------------------------------------------------|


outro:
|--------13---------------------|-------13-------------------|
|-----13------------------------|----13----------------------|
|-/14-------12---10-------------|-14-------12---10-----------|
|-------------------10----10/12-|------------------10--------|
|----------------------12-------|---------------------10--12-|
|-------------------------------|----------------------------|

|-----------------10-------------------------10-------------------|
|--------------10-------------------------10---------------13-13--|
|----10----12b-------12b-10h12p10-----12b--------12-10-12b--------|
|-12----12-------------------------12-----------------------------|
|-----------------------------------------------------------------|
|-----------------------------------------------------------------|

|---------------------------------12b----10--|
|--------------------13b-13-13-13------------|
|-10h12p10----10-----------------------------|
|----------12----12--------------------------|
|--------------------------------------------|
|--------------------------------------------|
Tap to rate this tab
# A B C D E F G H I J K L M N O P Q R S T U V W X Y Z