Song name
# A B C D E F G H I J K L M N O P Q R S T U V W X Y Z

Buckcherry - Next To You tab

Intro:
e|------------------------------------|
B|------------------------------------|
G|------------------------------------|  Play twice
D|------------------------------------|
A|---3-5-3-5^-5p3-5p3---3-0h3p0-------|
E|-5------------------5---------5-3-5-|

e|------------------------------------|
B|------------------------------------|
G|---5-7-5-7^-7p5-7p5---5---5---------|   2nd time guitar 2 plays this
D|-7------------------7---7---7-7-5-7-|
A|------------------------------------|
E|------------------------------------|

Verse:                             Ive been tryin...        Tempted...
e|------------------------|-------|------------------------|--------------|
B|------------------------|-------|------------------------|--------------|
G|-5---2-2-2-2-2-2--5---2-|-7-7-2-|------7-------7-------2-|-----7------7-|
D|-5-5-2-2-2-2-2-2--5-5-2-|-7-7-2-|--5-5-7---5-5-7---5-5-2-|-5-5-7--5-5-7-|
A|-3-5-0-0-0-0-0-0--3-5-0-|-5-5-0-|--5-5-5---5-5-5---5-5-0-|-5-5-5--5-5-5-|
E|---3----------------3---|-------|--3-3-----3-3-----3-3---|-3-3----3-3---|

          Is it true what the say? You won't give it away
e|--------|-----------------------------------------------|
B|--------|-----------------------------------------------|
G|-----5--|-2--------------------------------5------------|
D|-5---5--|-2--------------------------------5------------|
A|-5---3--|-0--------------------------------3------------|
E|-3------|-----------------------------------------------|

  Then I don't know what to do to get next to you, next to you
e|------------------------------------------------------------|
B|------------------------------------------------------------|
G|-7-------------------------------------------5-------2------|
D|-7-------------------------------------5-----5-------2------|
A|-5-------------------------------------5-----3-------0------|
E|---------------------------------------3--------------------|

Repeat intro and verse and then intro again

Solo:
e|-------------------|---------------|-8-8-8-5-5-8-8-8--5-5-8-8-8-8-|
B|-------------------|-------------7-|-8-8-8-5-5-8-8-8--5-5-8-8-8-8-|
G|-----7---7---7--9^-|-----7---7---7-|------------------------------|
D|-7h9---9---9-------|-7h9---9---9---|------------------------------|
A|-------------------|---------------|------------------------------|
E|-------------------|---------------|------------------------------|

e|----------------------|-----------------|--8-10-12-8-10-12-14-15-15^--|
B|------10-10-10--------|-----10-10-10-13-|-----------------------------|
G|-7s9----------9s7-7-7-|-7s9-------------|-----------------------------|
D|----------------------|-----------------|-----------------------------|
A|----------------------|-----------------|-----------------------------|
E|----------------------|-----------------|-----------------------------|

e|-----12--------15----|-----------|--------20^-20-|-------------------|
B|-----12--------15----|-20^-17-20-|-20^-17--------|-20^-20-17-20-20^--|
G|-14^----X8--17^---X8-|-----------|---------------|-------------------|
D|---------------------|-----------|---------------|-------------------|
A|---------------------|-----------|---------------|-------------------|
E|---------------------|-----------|---------------|-------------------|

e|---------------|-20^-17-20-20^-|-20^-20^-20^-20^-20^-20-|
B|-20^-17-20-20^-|---------------|------------------------|
G|---------------|---------------|------------------------|
D|---------------|---------------|------------------------|
A|---------------|---------------|------------------------|
E|---------------|---------------|------------------------|

e|-20^-20-17-20-17-----17-20^-20^-20^-17-----17-20^-20^-17-20------17-|
B|-----------------20^-------------------20^-------------------20^----|
G|--------------------------------------------------------------------|
D|--------------------------------------------------------------------|
A|--------------------------------------------------------------------|
E|--------------------------------------------------------------------|

e|-----17-----17-----17-----17-----17-----|--------------------|
B|-20^----20^----20^----20^----20^----20^-|--------------------|
G|----------------------------------------|--------------------| 
D|----------------------------------------|--------------------|
A|----------------------------------------|---3-5-3-5^-5-3-5-3-|
E|----------------------------------------|-5------------------|
                                            Repeat 3 more times
                                            and then play intro again





Tap to rate this tab
# A B C D E F G H I J K L M N O P Q R S T U V W X Y Z