Song name
# A B C D E F G H I J K L M N O P Q R S T U V W X Y Z

Buckcherry - Carousel tab

Hello, this is my first tab and I couldn't find a tab for this so i tabbed it. I hope 
enjoy and I hope it's accurate.

Intro/Chorus
e -------------------------------------------------------------------------|
B ----------------12-------------------------12----------------------------|
G ------9- 11h13-----13p11---9---11---11h13-------13p11---9----------------|
D 9h11---------------------------------------------------------------------|
A -------------------------------------------------------------------------|
E -------------------------------------------------------------------------|

e -------------------------------------------------------------------------|
B ---------------12-------------------9---------------9---------------9----|
G 11---11h13---------13p11----9---9---11-----9--------9---------------9----|
D -----------------------------------------------11------------------------|
A -------------------------------------------------------------------------|
E -------------------------------------------------------------------------|

Verse
e --2-----2---------4-----4---------5-----5----------------------------------|
B --2-----2---------4-----4---------5-----5---9h10--9-----------9----9----11-|
G --2-----2---------4-----4---------5-----5------------11-9h11----11---------|
D ---------------------------------------------------------------------------|
A ---------------------------------------------------------------------------|
E ---------------------------------------------------------------------------|
Tap to rate this tab
 
# A B C D E F G H I J K L M N O P Q R S T U V W X Y Z