Song name
# A B C D E F G H I J K L M N O P Q R S T U V W X Y Z

Buckcherry - Cream tab

Cream by Buckcherry
Standard tuning

I'm mostly posting this in hopes that someone much better than I will notice
it and tab out the rest of the song, because I'd like to play the song but
I'm not so good at picking them out by ear.  Here's the intro, only about
75% sure of it though.  Good luck.

e|-----------------------------------------------------------------|
A|o---------------------------------------------------------------o|
D|-----------------------------------------------------------------|
G|-----------------------------------------------------------------|
B|o-4-5-7----7-5-4---4---4---5-4-----0--0-------4-5-7----7---7----o|
E|--5-5-5--5-------5-5-5-5-5-5-5-7-5-5--5--7--7-5-5-5--5---5---5---|

Tempo changes and the following power chords are used:

e|------------|
A|------------|
D|------------|
G|---7--5--3--|
B|---7--5--3--|
E|---5--3--1--|

The pattern is kind of fast but straight forward, I leave it to you to work
out the rest, I'd love to learn the more interesting parts of the song if
someone is willing to tab it out.
Tap to rate this tab
 
# A B C D E F G H I J K L M N O P Q R S T U V W X Y Z