Song name
# A B C D E F G H I J K L M N O P Q R S T U V W X Y Z

Buckcherry - Rescue Me tab

----------------------------------------------------------------------------
			     Rescue Me - Buckcherry
----------------------------------------------------------------------------

Tabbed by:Bassface01
Email:guneagleluke@charter.net

Tuning: Standard (eBGDAE)


Intro:
Guitar 1
e|---------------------------|-------------------|
B|---------------------------|-------------------|
G|-5-5-5-------------5-55---:|----5--------------|
D|-5-5-5--6-66-5-5-5-5-55---:|-x3-5--8--6--------|
A|-3-3-3--6-66-5-5-5-3-33----|----3--8--6--------|
E|--------4-44-3-3-3---------|-------6--4--------|
|
Guitar 2
e|---------------------------------------------------------------|
B|---------------------------------------------------------------|
G|-------------------1212-12-12-10---------------------12--------|
D|-101010101010101010--------------13-1010101010101010-10-15-13--|
A|--------------------------------------------------------13-11--|
E|---------------------------------------------------------------|


Verse 1:
e|---------------------------------------------|
B|---------------------------------------------|
G|5--------------------5-----------------------|
D|5----x/--------------5--8--6--5--------------|
A|3----x/--------------3--8--6--5--------------|
E|------------------------6--4--3--------------|


Guitar 1:
e|-------------------------------------------------------------|
B|-------------------------------------------------------------|
G|5555555555553355555555555558855555555555555------------------|
D|xxxxxxxxxxxxxxxxxxxxxxxxxxxxxxxxxxxxxxxxxxx------------------|
A|3333333333331133333333333336633333333333333-8888888899999999-|
E|--------------------------------------------6666666677777777-|
|
Guitar 2:
e|------------------------------------------------------------|
B|------------------------------------------------------------|
G|555xxx555xx5555xxx888xx888xx8888----------------------------|
D|555xxx555xx5555xxx888xx888xx8888xx666xx666-8888888899999999-|
A|333xxx333xx3333xxx666xx666xx6666xx666xx666-8888888899999999-|
E|--------------------------------xx444xx444-6666666677777777-|


Chorus:
Both Guitars
e|---------------------------|-------------------|
B|---------------------------|-------------------|
G|-5-5-5-------------5-55---:|----5--------------|
D|-5-5-5--6-66-5-5-5-5-55---:|-x3-5--8--6--------|
A|-3-3-3--6-66-5-5-5-3-33----|----3--8--6--------|
E|--------4-44-3-3-3---------|-------6--4--------|


Solo 1:
e|-------------------------------------------|
B|----------8-9-11-9-8----13-----------------|
G|----8-10-------------10----13-12-10-12-----|
D|-10----------------------------------------|
A|-------------------------------------------|
E|-------------------------------------------|

Solo Rhythm:
e|-------------------------------------|
B|-------------------------------------|
G|5555555555555------------------------|
D|55555555555555555555555555555555-----|
A|33333333333335555555555555555555-----|
E|-------------3333333333333333333-----|

Verse 2:
Guitar 1:
e|----------------------------------------------------------|
B|----------------------------------------------------------|
G|----------12/1313--------13------12---------5-------------|
D|10--------12/1313--------13-----------------5--8--6--5----|
A|-------------------------11-----------------3--8--6--5----|
E|-----------------------------------------------6--4--3----|
|
Guitar 2:
e|--------------------------------------------------|
B|--------------------------------------------------|
G|5--------8--------------------------5-------------|
D|5--------8---------------------x/---5--8--6--5----|
A|3--------6-------11-------3----x/---3--8--6--5----|
E|---------------------------------------6--4--3----|


Guitar 1:
e|-------------------------------------------------------------|
B|-------------------------------------------------------------|
G|5555555555553355555555555558855555555555555------------------|
D|xxxxxxxxxxxxxxxxxxxxxxxxxxxxxxxxxxxxxxxxxxx------------------|
A|3333333333331133333333333336633333333333333-8888888899999999-|
E|--------------------------------------------6666666677777777-|
|
Guitar 2:
e|------------------------------------------------------------|
B|------------------------------------------------------------|
G|555xxx555xx5555xxx888xx888xx8888----------------------------|
D|555xxx555xx5555xxx888xx888xx8888xx666xx666-8888888899999999-|
A|333xxx333xx3333xxx666xx666xx6666xx666xx666-8888888899999999-|
E|--------------------------------xx444xx444-6666666677777777-|

Chorus:
Both Guitars
e|---------------------------|-------------------|
B|---------------------------|-------------------|  This entire thing twice.
G|-5-5-5-------------5-55---:|----5--------------|  
D|-5-5-5--6-66-5-5-5-5-55---:|-x3-5--8--6--------|
A|-3-3-3--6-66-5-5-5-3-33----|----3--8--6--------|
E|--------4-44-3-3-3---------|-------6--4--------|


Break:
e|-----------------------------------------------------|
B|-----------------------------------------------------|
G|-----------------------------------------------------|
D|888888888888888888888888888888886666666666666666-----|
A|888888888888888888888888888888886666666666666666-----|
E|6666666666666666666666666666666644444444444444444310-|
  xxxxxxxxxxxxxxxxxxxxxxxxxxxxxxxxxxxxxxxxxxxxxxxx

Guitar 1:
e|----------------------------------------------------|
B|----------------------------------------------------|
G|888888888888888888810101010101010101010101010101010-|
D|888888888888888888810101010101010101010101010101010-|
A|66666666666666666668-8-8-8-8-8-8-8-8-8-8-8-8-8-8-8--|
E|----------------------------------------------------|
  xxxxxxxxxxxxxxxxxxxx x x x x x x x x x x x x x x x

e|------------------------------------|
B|------------------------------------|
G|------------------------------------|
D|88888888888888888666666666666666666-|
A|88888888888888888666666666666666666-|
E|66666666666666666444444444444444444-|
  xxxxxxxxxxxxxxxxxxxxxxxxxxxxxxxxxxx
|
Guitar 2:
e|-----------------------------------------------------------|
B|-----------------------------------------------------------|
G|8-8888888888888888810-101010101010101010101010101010101010-|
D|8-8888888888888888810-101010101010101010101010101010101010-|
A|6-666666666666666668--8-8-8-8-8-8-8-8-8-8-8-8-8-8-8-8-8-8--|
E|-----------------------------------------------------------|
     xxxxxxxxxxxxxxxx   x x x x x x x x x x x x x x x x x x

e|------------------------------------|
B|------------------------------------|
G|------------------------------------|
D|88888888888888888666666666666666666-|
A|88888888888888888666666666666666666-|
E|66666666666666666444444444444444444-|
   xx xx xx xx xx x xx xx xx xx xx xx

Both Guitars:
e|----------------------------------------------------|
B|----------------------------------------------------|
G|888888888888888888810101010101010101010101010101010-|
D|888888888888888888810101010101010101010101010101010-|
A|66666666666666666668-8-8-8-8-8-8-8-8-8-8-8-8-8-8-8--|
E|----------------------------------------------------|
   xx xx xx xx xx xx   

Solo 2:
e|--------------------------------------------------------------|
B|---------------------------------------8-9-11b 11p9p8-9p8-----|
G|----------------------------------8-10-------------------108--|
D|1313--------------------10-1010-10----------------------------|
A|-----13-11-1111-10-1010---------------------------------------|
E|--------------------------------------------------------------|
|
e|-------------------------------18-----18--------|
B|9-8----11-9-8-12-9-8-13---18b----18b----18b-----|
G|----10------------------------------------------|
D|------------------------------------------------|
A|------------------------------------------------|
E|------------------------------------------------|

Guitar 1 plays chorus riff under solo

Verse 3:
Guitar 1:
e|----------------------------------------------------------------|
B|----------------------------------------------------------------|
G|555555555555555588888888888888810101010101010101010101010101010-|
D|555555555555555588888888888888810101010101010101010101010101010-|
A|33333333333333336666666666666668-8-8-8-8-8-8-8-8-8-8-8-8-8-8-8--|
E|----------------------------------------------------------------|

e|-----------------|
B|-----------------|
G|-----------------|
D|8888888899999999-|
A|8888888899999999-|
E|6666666677777777-|
|
Guitar 2
e|-------------------------------------------------|
B|16---------16h18p16-15---------------------------|
G|--------------------------15--17----15---16---17-|
D|-------------------------------------------------|
A|-------------------------------------------------|
E|-------------------------------------------------|
|
Guitar 3
e|------------------------------------------------|
B|------------------------------------------------|
G|17--------17h19p17-15---------------------------|
D|-------------------------17--18-----------------|
A|------------------------------------------------|
E|------------------------------------------------|


Chorus:
Guitar 1
e|---------------------------|-------------------|
B|---------------------------|-------------------|  
G|-5-5-5-------------5-55---:|----5--------------|  whole thing twice
D|-5-5-5--6-66-5-5-5-5-55---:|-x3-5--8--6--------|
A|-3-3-3--6-66-5-5-5-3-33----|----3--8--6--------|
E|--------4-44-3-3-3---------|-------6--4--------|
|
Guitar 2
e|---------------------------|-------------------|
B|16(20)---------------------|-------------------|
G|--------------------------:|-------------------| whole thing twice
D|--------------------------:|-13--12--13--------|
A|---------------------------|-------------------|
E|---------------------------|-------------------|

switch the note in parenthesis in the 
third time on each run through

End on C power chord
e|---|
B|---|
G|5--|
D|5--|
A|3--|
E|---|


| /  slide up
| \  slide down
| h  hammer-on
| p  pull-off
| ~  vibrato
| +  harmonic
| x  Mute note
============================================================================
Tap to rate this tab
# A B C D E F G H I J K L M N O P Q R S T U V W X Y Z