Song name
# A B C D E F G H I J K L M N O P Q R S T U V W X Y Z

Buckcherry - Next To You tab

This intro is amazing!! visit our UG webpage at fallenfriday.com

b-bend string, p-pull off, h-hammer on

Intro
e--------------------------------------|
b--------------------------------------|
g--------------------------------------|
d--------------------------------------|
a-0--3--5-3-5b--5p3-5p3------3---------|
e-----------------------5p3-5-5-5--3h5-|

Guitar 1
e-------------------------------------|
b----1--3-1-3b--3p1-3p1------1--------|
g-2--------------------2p0-2-2-2--0h3-|
d-------------------------------------|
a-------------------------------------|
e-------------------------------------|

Guitar 2
e--------------------------------------|
b--------------------------------------|
g--------------------------------------|
d--------------------------------------|
a-0--3--5-3-5b--5p3-5p3------3---------|
e-----------------------5p3-5-5-5--3h5-|

Verse 1
e-------------------------------------|
b-------------------------------------|
g---5----------------5----------7-7---|
d-7-5--5-7-7-7-7-7-7-5-5-7------7-7-7-|
a-7-3--5-7-7-7-7-7-7-3-5-7------5-5-7-|
e-5----3-5-5-5-5-5-5---3-5----------5-|
Tap to rate this tab
# A B C D E F G H I J K L M N O P Q R S T U V W X Y Z