Song name
# A B C D E F G H I J K L M N O P Q R S T U V W X Y Z

Buckcherry - Rescue Me tab

Notice the solo tab on here was lacking or at least sounded wrong to me

Tabbed by:Jay3000
Email:Jay3000[at]shaw.ca

Rescue Me (Solo) - Buckcherry
Tuning: Standard

Solo 1

E|---------------------------------------------------------|
B|---------------------------------------------------------|
G|---------8-9p8-11-9-8----/12-----------------------------|
D|----8-10--------------10-----12-10-8-10bv----------------|
A|/10------------------------------------------------------|
E|---------------------------------------------------------|

Solo 2

E|---------------------------------------------------------|
B|---------------------------------------------------------|
G|-------------------------------------10-12-13-13b-12-----|
D|-13-13----------------------10-10-13---------------------|
A|-------13-11-11-11-10-10-13------------------------------|
E|---------------------------------------------------------|

E|---------------------------------------------------------|
B|-------------------------/9-------/11------/12-------13v-|
G|-13p12p10h12p10p8h10p8p7----12-10----13-12-----13-12-----|
D|---------------------------------------------------------|
A|---------------------------------------------------------|
E|---------------------------------------------------------|

E|-----18-----18-------/11-11b-10--------------------------|
B|-18b----18b----18---------------11-13-11-12--------------|
G|---------------------------------------------------------|
D|---------------------------------------------------------|
A|---------------------------------------------------------|
E|---------------------------------------------------------|

Notation Guide:
p - pull-off
b - bend
v - vibrato
h - hammer-on
/ - slide up
Tap to rate this tab
# A B C D E F G H I J K L M N O P Q R S T U V W X Y Z