Buckcherry - Porno Star tab

Heres the song w/o the bridge and solo, haven't figured that out yet, post if you 
know it. I'm welcome to any corrections

intro x4
[-------------------------|
[-------------------------|
[-------------------------|
[---------------------7---|
[--3---3-5--3---3-5-3-----|
[----5--------5---------5-|


 verse x2
[-----------------------------------------------------------------|
[-----------------------------------------------------------------|
[--7-7\------------5-6-7--7-7\------------------------------------|
[--7-7\------------3-6-7--7-7\---0------------------------7-------|
[--5-5\------------3-4-5--5-5\-----3--3---3-5---3---3-5-3---------|
[---------------------------------------5---------5---------5-----|

[-----------------------------------------------------------------|
[-----------------------------------------------------------------|
[-----------------------------------------------------------------|
[---------------------7-------------------------------------------| 
[--3---3-5--3---3-5-3---------------------------------------------|
[----5--------5---------5-----------------------------------------|


 pre-chorus
[---------------------|
[-------------------\-|
[--2b--2b--2p0-2b---\-|
[-------------------\-|
[-------------------\-|
[---------------------|


 chorus x3
[--------------------------------------------------------------------------|
[--------------------------------------------------------------------------|
[-------------------7-7-7-7-7-7-7-7------------------------------7br-7-5---|
[--5-5-5-5-5-5-5-5--7-7-7-7-7-7-7-7--2-2-4-2-2-2-4-2-2-2-4-2-2-------------|
[--5-5-5-5-5-5-5-5--5-5-5-5-5-5-5-5--0-0-0-0-0-0-0-0-0-0-0-0-0-------------|
[--3-3-3-3-3-3-3-3---------------------------------------------------------|

Post Chorus
[--------------------|
[--------------------|
[--5-----------------|
[--5-----------------|
[--3-----------------|
[------0-2-2-3-------|

Main riff x2
[-------------------------|
[-------------------------|
[-------------------------|
[---------------------7---|
[--3---3-5--3---3-5-3-----|
[----5--------5---------5-|

 verse x2
[-----------------------------------------------------------------|
[-----------------------------------------------------------------|
[--7-7\------------5-6-7--7-7\------------------------------------|
[--7-7\------------3-6-7--7-7\---0------------------------7-------|
[--5-5\------------3-4-5--5-5\-----3--3---3-5---3---3-5-3---------|
[---------------------------------------5---------5---------5-----|

[-----------------------------------------------------------------|
[-----------------------------------------------------------------|
[-----------------------------------------------------------------|
[---------------------7-------------------------------------------| 
[--3---3-5--3---3-5-3---------------------------------------------|
[----5--------5---------5-----------------------------------------|


 pre-chorus
[---------------------|
[-------------------\-|
[--2b--2b--2p0-2b---\-|
[-------------------\-|
[-------------------\-|
[---------------------|


 chorus x3
[--------------------------------------------------------------------------|
[--------------------------------------------------------------------------|
[-------------------7-7-7-7-7-7-7-7------------------------------7br-7-5---|
[--5-5-5-5-5-5-5-5--7-7-7-7-7-7-7-7--2-2-4-2-2-2-4-2-2-2-4-2-2-------------|
[--5-5-5-5-5-5-5-5--5-5-5-5-5-5-5-5--0-0-0-0-0-0-0-0-0-0-0-0-0-------------|
[--3-3-3-3-3-3-3-3---------------------------------------------------------|

Post Chorus
[--------------------|
[--------------------|
[--5-----------------|
[--5-----------------|
[--3-----------------|
[------0-2-2-3-------|

Still trying to figure out bridge and solo

 chorus x3
[--------------------------------------------------------------------------|
[--------------------------------------------------------------------------|
[-------------------7-7-7-7-7-7-7-7------------------------------7br-7-5---|
[--5-5-5-5-5-5-5-5--7-7-7-7-7-7-7-7--2-2-4-2-2-2-4-2-2-2-4-2-2-------------|
[--5-5-5-5-5-5-5-5--5-5-5-5-5-5-5-5--0-0-0-0-0-0-0-0-0-0-0-0-0-------------|
[--3-3-3-3-3-3-3-3---------------------------------------------------------|

Post Chorus
[--------------------|
[--------------------|
[--5-----------------|
[--5-----------------|
[--3-----------------|
[------0-2-2-3-------|

Ending x2
[--------------------------------------------------|
[--------------------------------------------------|
[--------------------------------------------------|
[---------------------7----------------------------|
[--3---3-5--3---3-5-3--------3---3-5--3---3-5-3----|
[----5--------5---------5------5--------5-------5--|


====================
 / : slide up
 \ : slide down
 b : bend
 r : release bend
 h : hammer on
 p : pull off
 + : hold
 ^ : mute
 t : tap
 ~ : vibrato
 x : dead string
Tap to rate this tab
 
# A B C D E F G H I J K L M N O P Q R S T U V W X Y Z