Buckcherry - Next To You tab

-------------------------------------------------------------------------------
			     NEXT 2 YOU - Buckcherry
-------------------------------------------------------------------------------
Tabbed by: ironmanben
Email: bentrooper@gmail.com

Tuning: e B G D A E

guitar 1 - Keith Nelson - lead
guitar 2 - Stevie D. - rhythm
guitar 3 - Keith Nelson - slide - verses only
guitar 4 - Keith Nelson - solo


main riff:
e|-----------------------------------------|
B|-----------------------------------------|
G|-----------------------------------------|
D|-----------------------------------------|
A|----3-5-3-5^(6)-5-3-5-3-------3----------|
E|-/5---------------------5-3-5---5-5-3-5~-|
-|                                         |
e|-----------------------------------------|
B|-----------------------------------------|
G|-----------------------------------------|
D|-----------------------------------------|
A|-----------------------------------------|
E|-----------------------------------------|


main riff (both guitars:)
e|-----------------------------------------|
B|-----------------------------------------|
G|-----------------------------------------|
D|-----------------------------------------|
A|----3-5-3-5^(6)-5-3-5-3-------3----------|
E|-/5---------------------5-3-5---5-5-3-5~-|
-|                                         |
e|-----------------------------------------|
B|-----------------------------------------|
G|----5-7-5-7^(8)-7-5-7-5-------5----------|
D|-/7---------------------7-5-7---7-7-5-7~-|
A|-----------------------------------------|
E|-----------------------------------------|


riff 1:
e|---------------------------|
B|---------------------------|
G|-55-5-------------5-5------|
D|-55-5557-7-7-7-7--5-5-5-77-|
A|-33-3557-7-7-7-7-73-3-5-77-|
E|-----335-5-5-5-5-5----3-55-|
-|                           |
e|---------------------------|
B|---------------------------|
G|--5---------------5--------|
D|--5--5-7-7-7-7-7--5---5-7--|
A|--3--5-7-7-7-7-7-73---5-7--|
E|-----3-5-5-5-5-5-5----3-5--|


verse:
e|--------|   |---------------------------------------------------------|
B|-3-33---|   |-----3--------------3------------------------------------|
G|-2-22-2-|   |-----2--------------2---------------2--------------------|
D|-0-00-2-|   |-----0--------------0---------------2--------------------|
A|------0-|   |------------------------------------0--------------------|
E|--------|   |-3-3------------3-3-------------3-3----------------------|   
-|        |   |                                                         |
e|--------|   |---------------------------------------------------------|
B|-7--7---|   |-----3--------------3------------------------------------|
G|-7--7-2-|   |-0-0-2----------0-0-2-----------0-0-2--------------------|
D|-7--7-2-|   |-0-0-0----------0-0-0-----------0-0-2--------------------|
A|--------|   |------------------------------------0--------------------|
E|--------|   |---------------------------------------------------------|
-|        |   |                                                         |
e|--------|   |--------------------------------8-8----9--9-----9---9-99-|
B|-7--7---|   |-----7-7-77-7-7-5-7-/7------(7)-7-7--10-10-10-10-10------|
G|-7--7-2-|   |-----7-7-77-7-7-5-7-/7------(7)--------------------------|
D|------2-|   |---------------------------------------------------------|
A|------0-|   |---------------------------------------------------------|
E|--------|   |---------------------------------------------------------|


e|--------------------------------------------------------------------|
B|-----3--------------3-----------------------------------------------|
G|-----2--------------2---------------------------------------5-5-5-5-|
D|-----0--------------0---------------2-2-2-2-2-2-2-2-5-5-5-5-5-5-5-5-|
A|------------------------------------2-2-2-2-2-2-2-2-5-5-5-5-3-3-3-3-|
E|-3-3------------3-3-------------3-3-0-0-0-0-0-0-0-0-3-3-3-3---------|   
-|                                                                    |
e|----------------------------------------------------7---------------|
B|-----3--------------3-------------------------------x---------------|
G|-0-0-2----------0-0-2-----------0---4---------------7---------------|
D|-0-0-0----------0-0-0-----------0-0-2---------------5-------5-------|
A|------------------------------------------------------------3-------|
E|--------------------------------------------------------------------|
-|                                                                    |
e|------------------3-------------------------------------------------|
B|----/7----------5-5-/7--------------9---------------/10-----\8------|
G|----/7----------5-5-/7--------------7-------------------------------|
D|------------------------------------6-------------------------------|
A|------------------------------------7-------------------------------|
E|--------------------------------------------------------------------|


chorus:
e|------------------------------------------------------------------|
B|------------------------------------------------------------------|
G|------------------------------------------------------------------|
D|-7---5-----------7---5-----------7---5-----------7---5------------|
A|---------7--553----------7--553----------7--553----------7--553---|
E|---------------53--------------53--------------53--------------53-|
-|                                                                  |
e|-5-5-5-5-5-5-5-5-5-5-5-5-5-5-5-5-5-5-55555-5-555-5-5-5-5-5-555555-|
B|-x-x-x-x-x-x-x-x-x-x-x-x-x-x-x-x-x-x-xxxxx-x-xxx-x-x-x-x-x-xxxxxx-|
G|-2-2-2-2-2-2-2-2-x-x-x-x-x-x-x-x-x-x-xxxxx-x-xxx-xx-x-x-x-xxxxxx-|
D|-2-2-2-2-2-2-2-2-5-5-5-5-5-5-5-5-x-x-xxxxx-x-xxx-xx-x-x-x-xxxxxx-|
A|-0-0-0-0-0-0-0-0-3-3-3-3-3-3-3-3-5-5-55555-5-555-3-3-3-3-5-555555-|
E|---------------------------------3-3-33333-3-333-1-1-1-1-3-333333-|
^Reach your pinkie up to the 5th fret, its a stretch but its the way its done.


main riff 2:
e|----------------------------------------------------|
B|----------------------------------------------------|
G|----------------------------------------------------|
D|----------------------------------------------------|
A|----3-5-3-5^(6)-5-3-5-3-------3---------------------|
E|-/5---------------------5-3-5---5-5-3-5~------------|
-|                                                    | 
e|----------------------------------------------------|
B|--------------------------------------------3---3---|  
G|--------------------------------------------2---2---|
D|--------------------------------------------0---0---|
A|--------------------------------------------0---0---|
E|----------------------------------------------------|    

e|-----------------------------------------|
B|-----------------------------------------|
G|-----------------------------------------|
D|-----------------------------------------|
A|----3-5-3-5^(6)-5-3-5-3-------3----------|
E|-/5---------------------5-3-5---5-5-3-5~-|
-|                                         |
e|-----------------------------------------|
B|-----------------------------------------|
G|--2-5-7-5-7^(8)-7-5-7-5-------5----------|
D|--2---------------------7-5-7---7-7-5-7~-|
A|--0--------------------------------------|
E|-----------------------------------------|

riff 2:
e|-----------------------------------------|
B|-----------------------------------------|
G|-55-5-------------5-5--------------5--5--|
D|-55-5557-7-7-7-7--5-5-5-7-7-7-7-7--5--55-|
A|-33-3557-7-7-7-7-73-3-557-7-7-7-7-73--35-|
E|-----335-5-5-5-5-5----335-5-5-5-5-5----3-|
-|                                         |
e|-----------------------------------------|
B|-----------------------------------------|
G|--5---------------5----------------5-----|
D|--5--5-7-7-7-7-7--5---5-7-7-7-7-7--5---5-|
A|--3--5-7-7-7-7-7-73---5-7-7-7-7-7--3---5-|
E|-----3-5-5-5-5-5-5----3-5-5-5-5-5------3-|


guitar solo:
e|----------------------------------------------------------------|
B|------------------------------------------7---9-7---------------|
G|---7-----7---9-7~--(10)pbr9---7-----7-----7---9-7---------------|
D|/9---9------------9-------------4/9---9-------------------------|
A|----------------------------------------------------------------|
E|----------------------------------------------------------------|

e|-----------------------------------------------------------------|
B|-17--1717--17------1717--17------------17--17----17----1717------|
G|-17--1717--17------1717--17------------17--17----17--------------|
D|---------------1919------------19171919--------19----------------|
A|-----------------------------------------------------------------|
E|-----------------------------------------------------------------|

e|-------------------------------------------------------|
B|-----10--10--10----------------------10--10----12~-----|
G|/11------------11\9---7-7~---7--/11----------11--------|
D|-------------------------------------------------------|
A|-------------------------------------------------------|
E|-------------------------------------------------------|

e|---------10~-----12~---------------------12~-----14~-----15~-----|
B|-13~---------------------13~-----15~-----------------------------|
G|-----------------------------------------------------------------|
D|-----------------------------------------------------------------|
A|-----------------------------------------------------------------|
E|-----------------------------------------------------------------|



guitar solo rhythm:
 | x2                            | x2                              |
e|-------------------------------|---------------------------------|
B|-------------------------------|---------------------------------|
G|-------------------------------|---------------------------------|
D|-------------------------------|-----------------------2---------|
A|---------5---0-7---0-9-------5-|-0---3-0-3---0-5-5-5-------5-3-3-|
E|-7---7-7-------------------7---|---------------------------------|
-|                               |                                 |
e|-------------------------------|---------------------------------|
B|-------------------------------|---------------------------------|
G|-4-----------------------------|-2-------------------------------|
D|-4-----------------------------|-2-------------------------------|
A|-2-----------------------------|-0-------------------------------|
E|-------------------------------|---------------------------------|


e|---------------------------------|-------------------------------|
B|---------------------------------|-------------------------------|
G|---------------------------------|-------------------------------|
D|-----------------------4---------|---------------------4---------|
A|-----5-5-5---0-7-7-7-------7-5-5-|---5-5-5---0-7-7-7---------5---|
E|-7-------------------------------|-7-----------------------7-----|
-|                                 |                               |
e|---------------------------------|-------------------------------|
B|---------------------------------|-------------------------------|
G|-4-------------------------------|-4-----------------------------|
D|-4-------------------------------|-4-----------------------------|
A|-2-------------------------------|-2-----------------------------|
E|---------------------------------|-------------------------------|

                                  | bridge ---->
e|--------------------------------|--------------------------------|
B|--------------------------------|--------------------------------|
G|-5-5-5-5-5-55555-7-7-7-7-7-77777|2---------------5---------------|
D|-5-5-5-5-5-55555-7-7-7-7-7-77777|2---------------5---------------|
A|-3-3-3-3-3-33333-5-5-5-5-5-55555|0---------------3---------------|
E|--------------------------------|--------------------------------|
-|                                |                                |
e|--------------------------------|--------------------------------|
B|--------------------------------|----------------8---------------|
G|-5---------------7--------------|2-------------------------------|
D|-5---------------7--------------|2-------------------------------|
A|-3---------------5--------------|0-------------------------------|
E|--------------------------------|--------------------------------|
                                  | guitar 4:                      |
                                 e|-17~----------------------(17~)-|
                                 B|--------------------------------|
                                 G|--------------------------------|
                                 D|--------------------------------|
                                 A|--------------------------------|
                                 E|--------------------------------|


e|-----------------------------------------------------------------|
B|-----------------3-----------------------------------------------|
G|-0---------------2-------------------------------5---------------|
D|-0---------------0-------------------------------5---------------|
A|-x-------------------------------0---------------3---------------|
E|-3---------------------------------------------------------------|
-|                                                                 |
e|-----------------------------------------------------------------|
B|-----------------------------------------------------------------|
G|-----------------------------------------------------------------|
D|-----------------------------------------------------------------|
A|-----------------------------------------------------------------|
E|-----------------------------------------------------------------|
-|                                                                 |
e|-(17~)---------------(17~)\\\\\----------------------------------|
B|---------------------------------5----------------8--------------|
G|---------------------------------7^(9)------------10^(12)--------|
D|-----------------------------------------------------------------|
A|-----------------------------------------------------------------|
E|-----------------------------------------------------------------|


e|-----------------0-00-00-00-00-00-00-00-00------------------------|
B|-----------------0-00-00-00-00-00-00-00-00-33-33-33-33-33-33-33-3-|
G|-0---------------1-11-11-11-11-11-11-11-11-xx-xx-xx-xx-xx-xx-xx-x-|
D|-0---------------2-22-22-22-22-22-22-22-22-55-55-55-55-55-55-55-5-|
A|-x---------------2-22-22-22-22-22-22-22-22-55-55-55-55-55-55-55-5-|
E|-3---------------0-00-00-00-00-00-00-00-00-33-33-33-33-33-33-33-3-|
-|                                                                  |
e|------------------------------------------------------------------|
B|------------------------------------------------------------------|
G|------------------------------------------------------------------|
D|-----------------22--2--2--2--2--2--2--2--5--5--5--5--5--5--5--5--|
A|-----------------22--2--2--2--2--2--2--2--5--5--5--5--5--5--5--5--|
E|-----------------00--0--0--0--0--0--0--0--3--3--3--3--3--3--3--3--|
-|                                                                  | - - |
e|----------------|---------|---------------------------------------------|
B|-10-------------|-------12|--------15-------15-------15-------15--------|
G|-12^(14)--------|14^(16)--|-17^(19)--17^(19)--17^(19)--17^(19)--17^(19)~|
D|----------------|---------|---------------------------------------------|
A|----------------|---------|---------------------------------------------|
E|----------------|---x8----|---------------------------------------------|



guitar 4 chorus fills:
e|-17p15--15^(17)-|-17p15--20^(22)-20~---|-17----15----------15----17~---|
B|------17--------|------17--------------|-------------17----------------|
G|----------------|----------------------|-------------------------------|
D|----------------|----------------------|-------------------------------|
A|----------------|----------------------|-------------------------------|
E|----------------|----------------------|-------------------------------|

e|-17p15----15p12-15p12-15-15^(17)~------|-22p20-17-20--20^(22)--20~--22~--|
B|-------17------------------------------|---------------------------------|
G|---------------------------------------|---------------------------------|
D|---------------------------------------|---------------------------------|
A|---------------------------------------|---------------------------------|
E|---------------------------------------|---------------------------------|

e|-20^(22)-20pb(22)-20pb(22)-20-20^(22)-20~---|
B|--------------------------------------------|
G|--------------------------------------------|
D|--------------------------------------------|
A|--------------------------------------------|
E|--------------------------------------------|

 | x3                         | x1                            |
e|-20^(22)-20-17-15---17~-----|-17-15---17~----17-15---17~\\\-|
B|----------------------------|-------------------------------|
G|----------------------------|-------------------------------|
D|----------------------------|-------------------------------|
A|----------------------------|-------------------------------|
E|----------------------------|-------------------------------|

 | x4                  |
e|---------------------|
B|---------------------|
G|---------------------|
D|---------------------|
A|---3-5-3-5^(6)-5-3~--|
E|/5-------------------|




Order:
main riff x1
main riff x1 (both guitars)
riff 1 
verse 1 
chorus x2
main riff 2 
riff 1 
verse 2 (same idea as verse 1)
main riff 2 
riff 2
guitar solo rhythm/guitar solo
bridge
chorus x4/guitar 4 chorus fill
main riff x1 (both guitars)



************************************

| /   slide up
| \   slide down
| h   hammer-on
| p   pull-off
| ~   vibrato
| +   harmonic
| x   Mute note
| ^   Bend
| pb  Pre-bend
| br  Bend release
| pbr Pre-bend release
| brb Bend release bend

************************************
Tap to rate this tab
 
# A B C D E F G H I J K L M N O P Q R S T U V W X Y Z