Song name
# A B C D E F G H I J K L M N O P Q R S T U V W X Y Z

Buckcherry - Rescue Me tab

This is the main solo in the song. Nice simple solo that is pretty fun to play and
sounds pretty cool. I personally love the build to it (the "kiss me on the mouth, and 
take my
breath away" bit). Seen some tabs that are there or there-abouts but to my ears this is 
correct. Hope you enjoy playing!

e|--------------------------------------------------------------|
B|--------------------------------------------------------------|
G|-----------------------------------------10-12-13-13b-rb13-12-|
D|-/--13-13-10-----------------10~--/10-13----------------------|
A|-------------11-11--10-10-13----------------------------------|
E|--------------------------------------------------------------|

e|-------------------------------------------------------------------|
B|-----------------------------/9~-------/11~-------/12~-------/13~--|
G|-12h13p12\10h12p10\8h10p8~-------12-10------13-12------13-12-------|
D|-------------------------------------------------------------------|
A|-------------------------------------------------------------------|
E|-------------------------------------------------------------------|

e|-------18-----18-----------------------------------------------------|
B|--/18b----18b----18~---16~---16b-rb16-15~----------------------------|
G|--------------------------------------------15~--17~--15~-16~-17~----|
D|---------------------------------------------------------------------|
A|---------------------------------------------------------------------|
E|---------------------------------------------------------------------|
Tap to rate this tab
 
# A B C D E F G H I J K L M N O P Q R S T U V W X Y Z