Song name
# A B C D E F G H I J K L M N O P Q R S T U V W X Y Z

Buckcherry - All Of Me tab

I finally found out this song on guitar while I was watching it on youtube
And Im not sure if it’s the right tab but I was watch how the guy played It.
 And I sound it out and finally I got the bastard :P
oh and the bridge part i dont know if its not the right one :P

Well here it is 
Song name: All Of Me
Artist name: Buckcherry

(Intro, verse, and chorus)
|-----------------------------------------------------------------------|
|-----------------------------------------------------------------------|
|-----------------------------------------------------1--1--------------|
|-----------------------------------------------------2--2--------------|
|--7--7--7--7--7--7--7--6--6--6--4--4--4--4--4--4--4--2--2--------------|
|--5--5--5--5--0--5--5--4--4--0--2--2--2--2--0--2--2--------------------|

|-----------------------------------------------------------------------|
|-----------------------------------------------------------------------|
|-----------------------------------------------------------------------|
|--7--7--7--7--7--7--7--7--7--7--9--9--9--9--9--9--9--9--9--9--9--9--9--|
|--5--5--5--5--0--5--5--5--5--0--7--7--7--7--0--7--7--7--7--7--7--7--7--|
|-----------------------------------------------------------------------|
Pre-chorus                                                                                      x2
|-----------------------------------------------------------------------|
|-----------------------------------------------------------------------|
|-----------------------------------------------------------------------|
|--7--7--7--7--7--7--7--7--7--------------------------------------------|
|--5--5--5--5--0--5--5--5--5-------7--7--7--7--7--7--7--7--7--7---------|
|----------------------------------0--5--5--5--5--0--5--5--5--5---------|

|-----------------|
|-----------------|
|--9--------------|
|--9--------------|
|--7--------------|
|-----------------|

Bridge
|---------------------------------------0--0--0--0--0--0--0--0--0--0--0---|
|---------------------------------------0--0--0--0--0--0--0--0--0--0--0---|
|---------------------------------------1--1--1--1--1--1--1--1--1--1--1---|
|---------------------------------------2--2--2--2--2--2--2--2--2--2--2---|
|---------7--7--7--7--7--4--4--4--4--4--2--2--2--2--2--2--2--2--2--2--2---|
|---------5--5--5--5--5--2--2--2--2--2--0--0--0--0--0--0--0--0--0--0--0---|

Guitar solo
|--------------------------|
|--------------------------|
|--------------------------|
|--4--7—7--—9b--2--4—4-----|
|--------------------------|
|--------------------------|

|-----------------------------------------------------------------|
|-----------------------------------------------------------------|
|-------------9--11--9--11—11/14—11------5—5/9—4------------------|
|-4/11-----------------------------------------------2--4—2-------|
|-----------------------------------------------------------------|
|-----------------------------------------------------------------|
Tap to rate this tab
# A B C D E F G H I J K L M N O P Q R S T U V W X Y Z