Guitaretab - guitar tabs
Song name
# A B C D E F G H I J K L M N O P Q R S T U V W X Y Z

Buckcherry - Crazy Bitch tab

Artist: Buckcherry
Song: Crazy Bitch
Album: 15
Tuning: Standard
Email: LiquIdfir3@msn.com
b= 1/2 bend

Moderately: 99
Intro: Dist (Guitars 1 & 2)
e|-----------------|-------------------------------------|
B|-----------------|--------------------9b--(9)/7-9-7-7--|
G|-----------------|--------------------9b--(9)/7-9-7-7--|
D|---9-9--9-9------|--9-9-x-9-x-9-9-9--------------------|
A|---9-9--9-9------|--9-9-x-9-x-9-9-9--------------------|
E|---7-7--7-7--14\-|--7-7-x-7-x-7-7-7--------------------|

e|---------------------------------|
B|----------------------------7----|
G|----------------------------7----|
D|---9-9-x-9-x-9-9-9--7--8--9---9--|
A|---9-9-x-9-x-9-9-9--7--8--9------|
E|---7-7-x-7-x-7-7-7---------------|

Verse: 
(Guitar 1) Dist.
e|-------------------------------------------|
B|---------------------9b--(9)\7--9-7-(7)\---|
G|---------------------9b--(9)\7--9-7-(7)\---|
D|---9-9-x-9-x-9-9-9-0-----------------------|
A|---9-9-x-9-x-9-9-9-0-----------------------|
E|---7-7-x-7-x-7-7-7-------------------------|

(Guitar 2) 
e|-------------------------|------------------------------|
B|-------------------------|------------------------------|
G|-------------------------|------------------------------|
D|-------------------------|------------------------------|
A|---------------------5---|----------5-6-0---------------|
E|---4-4-0-5-5-0-6-6-0---7-|--5-7-7-7--------7-x-x-x--x-x-|

e|--------------------------------|------------------------------|
B|--------------------------------|------------------------------|
G|--------------------------------|------------------------------|
D|--------------------------------|------------------------------|
A|-------------5-6-0--------------|-----------5-6-0--------------|
E|---5-7-7-7-7-------0-x-x-x--x-x-|--5-7-7-7--------7-x-x-x--x-x-|

e|------------------------------|-------------------------------|
B|------------------------------|-------------------------------|
G|---7------7-8-------------x-x-|-------------------------------|
D|---7-9--9-----x-9-----(9)-x-x-|-------------------------------|
A|------------------------------|----------------5--------------|
E|------------------------------|--0-4--0-5-5--0---0--7---7-----|

e|------------------------------|
B|------------------------------|
G|------------------------------|
D|------------------------------|
A|-----------5-6-0--------------|
E|---5-7-7-7-------7--x-x-x--x-x|

e|-----------------------------------------|-----------------------|
B|-------------------9b-(9b)-(9b)-\7-(9b)--|-----------------------|
G|-----------7-8-----9b-(9b)-(9b)-\7-(9b)--|---------7-8-----------|
D|---7-9-9-9-----9-9-----------------------|-7/9-9-9------x-9------|
A|-----------------------------------------|-----------------------|
E|-----------------------------------------|-------------------14\-|

e|-----------------------------|
B|-----------------------------|
G|-----------------------------|
D|-----------------------------|
A|------------------5-0--------|
E|---0-4-4--5-5-5-0-------7--7-|

Chorus: 
e|------------------------------------|--------------------------|
B|------------------------------------|--------------------------|
G|------------------------------------|-------------9b-(9)\7-9-7-|
D|---9--9----9--9---------------------|--9--9-------9b-(9)\7-9-7-|
A|---9--9----9--9---------------------|--9--9--------------------|
E|---7--9----7--7---------------------|--7--7--------------------|
    "Hey"    "you're a crazy bitch..."             .."Top of it..."
[ Tab from: http://www.guitaretab.com/b/buckcherry/70258.html ]
e|-----------------------------------------------------------|
B|-----------------------------------------------------------|
G|-----------------------------------------------------------|
D|---9--9-----9--9-------------------------------------------|
A|---9--9-----9--9---------------------------------5-0-------|
E|---7--7-----7--7---------12\-----0--4--0-4-4---0-----7--7--|
    "dream"   "im doin...""night"  "scratches.."

Bridge:

e|-------------------------------------------------------------|
B|-------------------------------------------------------------|
G|-------------------------------------------------------------|
D|-------------------------------------------------------------|
A|-------------5-------7----------------------------------5----|
E|---5-7--7--7---5-5-5---7-7-7-5-7-7-7-4-4-0-5-5-0-6-6--6----7-|

Solo:
e|---------------------------|------------------------|
B|---------------------------|------------------------|
G|---2-2----2-4-2-4--------4-|-x-x-5-4-2-4-2-4---2/16-|
D|---------------------------|-x-x--------------------|
A|---------------------------|------------------------|
E|-------0-------------------|------------------------|

e|-----------------------------------|------------------------------|
B|-----------------------------------|------------------------------|
G|-----------------------------------|------------------------------|
D|-----------------------------------|------------------------------|
A|-----------------------------------|----------------------------0-|
E|---0-1-2--0-1-2-0-1-2-0-1-2--2-2-0-|-1-2-0-1-2-0-1-2-0-1-2--2-2---|

e|-----------------------------------------------/14-|
B|-------17-19-----17-17----16-----17-14-16-16-------|
G|---/18--------18------17---------------------------|
D|-----------------------------16--------------------|
A|---------------------------------------------------|
E|---------------------------------------------------|

e|---14-14-----14-17-14-14-14-17b--17b-|
B|-------------------------------------|
G|-------------------------------------|
D|-------------------------------------|
A|-------------------------------------|
E|-------------------------------------|


e|------------------------------------|
B|------------------------------------|
G|------------------------------------|
D|------------------------------------|
A|---(0)-1-0-1-2-0-1-2-1-2-1-2-1-2-0--|
E|------------------------------------|

e|--------------------------------|
B|--------------------------------|
G|--------------------------------|
D|--------------------------------|
A|---1-2-0-1-2-0-1-2-1-2-1-2-1-2--|
E|------------------------------0-|

e|---(17)-14-----14-14------14---------------------------------------|
B|-----------17b--------17b----17-(17b)--16-14-----------------------|
G|----------------------------------------------16-14-16b(hold bend)-|
D|-------------------------------------------------------------------|
A|-------------------------------------------------------------------|
E|-------------------------------------------------------------------|

  
e|-------------------------------------------------|
B|---17--------------------------------------------|
G|-----16---(16)-14-16-14-16-14-16-14-16-14--------|
D|-------------------------------------------16-14-|
A|-------------------------------------------------|
E|-------------------------------------------------|


e|-------------------------------------|---------------------------|
B|-------------------------------------|---------------------------|
G|-------------------------------------|---------------------------|
D|-------------------------------------|---------------------------|
A|-------------------------------------|-----------------6------7--|
E|---(0)-1-2-0-1-2-0-1-2-0-1-2---2-2-0-|-1-2-0-1-2-0-0-4-4---5--5--|




Related for Crazy Bitch tab
Advertisement will be closed in 10 seconds