Guitaretab - guitar tabs
Song name
# A B C D E F G H I J K L M N O P Q R S T U V W X Y Z

Buckcherry - Late Nights In Voodoo tab

---------------------------------------------------------------------------
Late Nights in Voodoo - Buckcherry
---------------------------------------------------------------------------
Email:jerrocha2001@yahoo.com

Note: This is only the Rhythm guitar tab.  However, the lead guitar is in open
G tuning using a slide if anyone wants to tackle tabbing it. During the ďBaby I
love your evil waysĒ part the rhythm guitar sounds like its arppegiating the chord
progression (I usually just make up my own solo during this part). Anyone wishing
to tab that part out please do.  I figure that since I couldnít find any guitar tab
of this song anywhere on the internet I would give it a shot.  This is my first tab
Iíve ever done and any help contributing to this tab is most appreciated. By all
means this is just a start to help anyone out there.  Thanks. 

Great Song by Buckcherry.  

Tuning: Rhythm Guitar Standard Tuning

Intro: Play this progression twice and let that D sustain out a bit
e|------3---------5-------------------------------------------------------|
B|------3---------5-------------------------------------------------------|
G|------4----7----6-----5----7--------------------------------------------|
D|------5----7----7-----5----7--------------------------------------------|
A|------5----5----7-----3----5--------------------------------------------|
E|------3---------5-------------------------------------------------------|

Verse: ďlisten can you hear the disasterÖĒ  Play this a couple of times 
    PM-----------]
e|-------------------------------------------------------------------------|
B|-------------------------------------------------------------------------|
G|-------------------------------------------------------------------------|
D|---------------7--7---7---7-7-7--7---------------------------------------|
A|-------5-------5--5---5---5-5-5--5---------------------------------------|
E|----3-----5--8-----------------------------------------------------------|
[ Tab from: http://www.guitaretab.com/b/buckcherry/91291.html ]
Right before the chorus play this ď I just want to see you HappyĒ
Let that final Power chord G sustain out a bit before the chorus starts.
   PM-----------]
e|-------------------------------------------------------------------------|
B|-------------------------------------------------------------------------|
G|----------------------------------------7----------5---------------------|
D|---------------7--7---7---7-7-----5-----7-----7----5----5----------------|
A|-------5-------5--5---5---5-5-----5-----5-----7----3----5----------------|
E|----3-----5--8--------------------3-----------5---------3----------------|

Chorus:  ďFall into you, I cannot afford to stayĒ Play this three times
After tree times play the intro again then go back to the verse section.  
e|-------------------------------------------------------------------------|
B|-------------------------------------------------------------------------|
G|-------------------------------------------------------------------------|
D|----7-9--7-7-7---5-7--5-5-5---3-5--3-3-3---5-7--5-5-5--------------------|
A|----5-5--5-5-5---3-3--3-3-3---1-1--1-1-1---3-3--3-3-3--------------------|
E|-------------------------------------------------------------------------|

Lyrics:
Listen can you hear the disaster, oh yeah
There about a quarter a mile, oh my baby doll
I just want to see you happy, I just want to see you happy

Fall into you, I cannot afford to stay
Late nights in Voodoo, I love your evil ways
Canít sleep cause itís a long flight and 
There wont be a no cure tomorrow
Hang tight Iím grooving donít you believe in anything at all? 

Tell me are you scard of rejection, oh yeah
Because every no there is room for a yes, oh my baby doll
I just want to see you laughing, I just want to see you laughing

Fall into you, I cannot afford to stay
Late nights in Voodoo, I love your evil ways
Canít sleep cause itís a long flight and 
There wont be a no cure tomorrow
Hang tight Iím grooving donít you believe in anything at all?

I remember when we took that walk (in the city park??)
You kissed me that night (and I was yours??)

Baby I love your evil ways
The sunlight creeps through an open shade
Its means a lot to me when you feel me with your eyes
There is a place for you won't you come an sit inside
But don't you beleive in anything at all
Don't you beleive in anything at all? 
You just don't mind the get down, You don't mind the Pain
Everyday, Everyday, EVERYDAY

Fall into you, I cannot afford to stay
Late nights in Voodoo, I love your evil ways
Canít sleep cause itís a long flight and 
There wont be a no cure tomorrow
Hang tight Iím grooving donít you believe in anything at all?




Related for Late Nights In Voodoo tab