Guitaretab - guitar tabs
Song name
# A B C D E F G H I J K L M N O P Q R S T U V W X Y Z

Buckcherry - So Far tab

---------------------------------------------------------------------------
			     SO FAR - BUCKCHERRY
---------------------------------------------------------------------------
Email:jerrocha2001@yahoo.com

Another great song by BUCKCHERRY!!  15 is one hell of a rock album. I'll break this tab
into sections.  You'll have to figure out the timing by listening to the album but I
think I got it right.  Anyone who wants to tab the solo and add it to the tab is okay
with me.  Thanks everyone. 

Tuning:Standard Tuning

INTRO:"Tell you how the story's told" Play this immediatly after twice!!
e|---------------------------|
B|---------7-----------------|
G|---------7-----------------|2X's
D|---------5-7--9-9-9-9-9-9--|
A|-----------7--9-9-9-9-9-9--|
E|-----------5--7-7-7-7-7-7--|

After Josh say's "C'mon" play this. Play this again when "I didn't do it for money, Did
it all for free" part. 
e|------------------|
B|------------------|
G|----7-------------|
D|--6-7-7-9-9-9-9-9-|
A|--6-5-7-9-9-9-9-9-|
E|--4---5-7-7-7-7-7-|

Main Riff
e|-----------------------------------------------------------------------|
B|-----------------------------------------------------------------------|
G|--7------------------9-9-----------------9-9---------------7-9---------|
D|6-7-7-9-9--9-9--9-9--9-9--9-9--9-9--9-9--9-9--9-9-9-9-9-9--7-9--9-9-9-9|
A|6-5-7-9-9--9-9--9-9--7-7--9-9--9-9--9-9--7-7--9-9-9-9-9-9--5-7--9-9-9-9|
E|4---5-7-7--7-7--7-7-------7-7--7-7--7-7-------7-7-7-7-7-7-------7-7-7-7|
[ Tab from: http://www.guitaretab.com/b/buckcherry/91299.html ]
Chorus: "So far it's workin out" Let the E and D power chords sustain for a bit then go
back to the intro chords again D-A-B for a couple bars then pause for a split second
then play the main riff again. 
e|------------|
B|------------|
G|-9-----7----|
D|-9-----7----|
A|-7-----5----|
E|------------|

During the solo Keith plays these chords.  Be sure to ride the last chord F# until the
 end of the solo then back to the intro.   
e|-0---3-3-3--------------------------------0---3-3-3---2-2-2-2-2-2-2-2-2--|
B|-0---3-3-3---2-2-2------------------------0---3-3-3---2-2-2-2-2-2-2-2-2--|
G|-1---0-0-0---2-2-2--4-4--4-4--4-4--4-4----1---0-0-0---3-3-3-3-3-3-3-3-3--|
D|-2---0-0-0---2-2-2--4-4--4-4--4-4--4-4----2---0-0-0---4-4-4-4-4-4-4-4-4--|
A|-2---2-2-2---0-0-0--2-2--2-2--2-2--2-2----2---2-2-2---4-4-4-4-4-4-4-4-4--|
E|-0---3-3-3--------------------------------0---3-3-3---2-2-2-2-2-2-2-2-2--|

Lyrics
By Josh Todd

Iíll tell you how the stories told I always wanted so much more
And way on down the road I caught a glimpse of the sunlight
Working on my favorite thing using every piece of me
Drinking, and smoking, and fucking, and making nothing
I didnít do it for money, I did it all for free
I did it all to fill the fucking hole inside of me
So far itís working out, everythingís different now
So far
So far the mean machine hasnít got the best of me
So far
Think about what you know forget about what your told
See how your story grows and let it come from your own mind
Do all your favorite things cover it with all your dreams
Breathe it, and smoke it, and fuck it and make it something
(Pre Chorus)
(Chorus)
Iíll tell you how the stories told I always wanted so much more
And way on down the road I caught a glimpse of the sunlight
(Pre-Chorus)
(Chorus)


Well I hope this helps any Buckcherry fan out there!!
Related for So Far tab