Song name
# A B C D E F G H I J K L M N O P Q R S T U V W X Y Z

Buckethead - Computer Master tab

D#G#C#F#A#D#

|--------------------------|-----------------------------|X4
|--------------------------|-----------------------------|
|------3-------------------|------3----------------------|
|--3H5---5-----------------|--3H5---5--------------------|
|----------3-1-3-1---------|----------3-1-3-1~~~~~-------|
|------------------3-1-1H3-|-----------------------------|

|---------------------------------|-----------------------------------|X4
|---------------------------------|-----------------------------------|
|---------------------------------|-----------------------------------|
|---------------------------------|-----------------------------------|
|------------------------------1~-|----------------------3B-1-3-1-----|
|-1-3-3-3-1-333-1-333-1-33-1-3----|-1-3-3-3-1-333-1-333-----------3-1-|

Key
H= hammer on
B= bend
~= vibrato
Tap to rate this tab
# A B C D E F G H I J K L M N O P Q R S T U V W X Y Z