Song name
# A B C D E F G H I J K L M N O P Q R S T U V W X Y Z

Buckethead - Braingate tab

palm mute

E||---------------------------------------------------------------------------------|
B||---------------------------------------------------------------------------------|
G||---------------------------------------------------------------------------------|
D||---------------------------------------------------------------------------------|
A||-------------------------------------5-5-----------------------10-10-10-10-9-9-5-|
E||-5/12/5--5-7-7-7-7-7-7-7-7-5-7-7-7-7-----7-7-5-7-7-7-7-7-7-7-7-------------------|

alternate to this about every 8x (play once) then back to main riff

E||------------------------------------------------------------------------|
B||------------------------------------------------------------------------|
G||------------------------------------------------------------------------|
D||------------------------------------------------------------------------|
A||-----------------------------5-5------------------------5-5-5-5---------|
E||-5-7-7-7-7-7-7-7-7-5-7-7-7-7-----7-7-5-7-7-7-7-7-7-7-7----------5-5-5-5-|
	
Tap to rate this tab
# A B C D E F G H I J K L M N O P Q R S T U V W X Y Z