Song name
# A B C D E F G H I J K L M N O P Q R S T U V W X Y Z

Buckethead - Jowls tab

intro

-----------------------------------------|---------------------|
-----------------------------------------|---------------------|
-------------------------------12-13-15--|----------12-13-15--.|
---------------------12-13-15------------|12-13-15------------.|
-----------12-13-15----------------------|---------------------|

main riff

-----------------------------------|
-----------------------------------|
-----------------------------------|
-----------------------------------|
-----------------------------------|
-0-0-6---0-0-0-6-0-6~--------------|

the fun "save me the slaaaaww" riff

E|-----------------------------------------------------|
b| ----------------------------------------------------|
g|--------------10-------------------------------------|
d|--------9------------9-------------------------------|
a|--9--------------------------------------------------|
e|-----------------------------------------------------|


E|-15-14-13-12-11-10-11-12----------------------------|
b|----------------------------------------------------|
g|----------------------------------------------------|
d|----------------------------------------------------|
a|----------------------------------------------------|
e|----------------------------------------------------|
	
Tap to rate this tab
# A B C D E F G H I J K L M N O P Q R S T U V W X Y Z