Song name
# A B C D E F G H I J K L M N O P Q R S T U V W X Y Z

Buckethead - Kurtz Temple tab

slide intro main riff

e|--15/12-|-------------|
B|--------|-------------|
G|--------|-------------|
D|--------|---10-11--13-| repeat 8x
A|--------|--------11---|
E|--------|-13----------|

bridge

e|--------------------------------------------------|
B|--------------------------------------------------|
G|--------------------------------------------------|
D|--------------------------------------------------| repeat 4x
A|--------------------------------------------------|
E|-13-13-13-13-13-13-13-13-13--9-9-9-8-8-8-8/ to 13-|

back to main riff - play 4x
	
Tap to rate this tab
# A B C D E F G H I J K L M N O P Q R S T U V W X Y Z