Guitaretab - guitar tabs
Song name
# A B C D E F G H I J K L M N O P Q R S T U V W X Y Z

Buckethead - Witches On The Heath tab

i will update and try to finish this tab when i have more time. enjoy

E-----------------------------------------------------------------|
B----5----5-----5~------------------------------------------------|
G---4-4--4-----4---4---11b-r-11p9/8h9--------------9h11~----------|
D--6---6------6-----6-----------------9--------9h11---------------|
A-4----------4----------------------------9h11--------------------|
E-----------------------------------------------------------------|

[ Tab from: http://www.guitaretab.com/b/buckethead/103518.html ]
E-------9------9-pb(15)r(14)b(16)-14-12p11-11b(12)---------------16-14----|
G-----9---9--12----------------------------------12------------13---------|
G-11b----------------------------------------------12h14~---14------------|
D---------------------------------------------------------15--------------|
A-------------------------------------------------------------------------|
E-------------------------------------------------------------------------|

E--12s11~--19~--16h17p16p14-16-----------------------------------|
B------------------------------14-14--14h16-----14br-p12---------|
G-------------------------------------------15-----------13br----|
D----------------------------------------------------------------|
A----------------------------------------------------------------|
E----------------------------------------------------------------|
Related for Witches On The Heath tab
Advertisement will be closed in 10 seconds