Guitaretab - guitar tabs
Song name
# A B C D E F G H I J K L M N O P Q R S T U V W X Y Z

Buckethead - Little Gracie tab

-----------------------------------------------------------------|
--------3----------------3---------------------------------------|
--------------0--------------------------------------------------|
-------------------0--------------2--0---------------------------|
-----------------------------------------------------------------|
--------3----------------3--------3------------------------------|

repeat this twice then...

--------------------0-----------------------------------------------|
--------1----------------1---------------0--------------------------|
------------0----------------0-----------0--------------------------|
---------------2-----------------2-------2--------------------------|
--------3--------------------------------3--------------------------|
--------------------------------------------------------------------|

do that twice then...
[ Tab from: http://www.guitaretab.com/b/buckethead/103697.html ]
-----------------------------------------------------------5----------|
--------3------------------3---------------3--------------------------|
-----------0-------------------0---------------0----------------------|
----------------4-----------------4----------------4------------------|
--------5------------5----------------5----------------5--------------|
----------------------------------------------------------------------|

then my favorite part of the song...

---------------------------------5-------------------3----2-------------|
-----8-------------8------7-----------------------0---------------------|
---------9--------------------7----------------0------------------------|
-------------9------------------------------2---------------------------|
-----7--------------------5--------------3------------------------------|
------------------------------------------------------------------------|

thats all i've got so far, if anybody has any suggestions or comments about what i did, 
be happy to hear from u and let me know what u think.
Related for Little Gracie tab
Advertisement will be closed in 10 seconds