Song name
# A B C D E F G H I J K L M N O P Q R S T U V W X Y Z

Buckethead - Somewhere Over The Slaughterhouse tab

Artist : Buckethead
Song   : Somewhere over the Slaughterhouse
Album  : Somewhere over the Slaughterhouse
Tuning : Eb Ab Db Gb Bb Eb

-------1---------------1----------1-------------------|
-------1--5--1--3--5---1---2--2---1-------------------|
-------2--3------------2---x--2---2--------3--2-----0-|
---3---3--3------------3---x--2---3----0---3--0--3----|
------------------------------------------------------|
------------------------------------------------------|

------------------------------------------------------|
------------------------------------------------------|
-2--3---0-----------2---------------------------------|
----3---x--2/3/5/7--3---------------------------------|
-----------x/x/x/x------------------------------------|
------------------------------------------------------|

That's it

please rate
Tap to rate this tab
# A B C D E F G H I J K L M N O P Q R S T U V W X Y Z