Song name
# A B C D E F G H I J K L M N O P Q R S T U V W X Y Z

Buckethead - Sail On Soothsayer tab

----------------------------------------------------------------------------
			     Sail on Soothsayer - Buckethead
----------------------------------------------------------------------------
Tabbed by: Jonny-D
Email: Ride_.the._lightning@hotmail.com

Tuning: Standard

*Note* This is my first tab I've ever submitted, but I thought I'd submit what I have on 
song for others to base additions on, because there are no other tabs for this song anywhere.


Intro 1 x4
Intro 2 x2
Intro 1 x2
Slow Solo (Work in progress)

____________________


Intro 1
e|----------10-------------------------|
B|---7h8h10----10p8-8p7----------------|
G|----------------------7-7h9-9--------|
D|-------------------------------------|
A|-------------------------------------|
E|-0-----------------------------------|

Intro 2
e|-------------------------------------|
B|-------------------------------------|
G|-----------12------------------------|
D|---9h10h12----12p10-10p9-------------|
A|-0-----------------------10-10h12-12-|
E|-------------------------------------|

Slow Solo (Work in Progress)

           *Let notes ring*
e|-------------------------------------------------------------------------|
B|--------------------------------/12~~~~~~~-p10h12p10~~~~~~~-/12~~~~~~~---|
G|-/12~~~~~~~~~~~~~~~-11~~~-h12~~----------------------------------------9-|
D|-------------------------------------------------------------------------|
A|-------------------------------------------------------------------------|
E|-------------------------------------------------------------------------|

e|-------------------------------------------------------------------------|
B|-------------------------------------------------------------------------|
G|-------12\11h12p11-------------------------------------------------------|
D|----12-------------14-14---12-14----------12-----------------------------|
A|-14-------------------------------12--\14----12--12p10p9--7-----9h10h12--|
E|-------------------------------------------------------------------------|

e|-------------------------------------------------------------------------|
B|-\12~~~~~-10--12-----------------------/17--15-13-12-12~~~~~~~~~~~~~-----|
G|-----------------9~~~~~~~~~~~~~~-----------------------------------------|
D|-------------------------------------------------------------------------|
A|-------------------------------------------------------------------------|
E|-------------------------------------------------------------------------|

e|-------------------------------------------------------------------------|
B|------------12-----------------------------------------------------------|
G|-/14---12-14----12h14-12p11------12p11------12---------------------------|
D|-------------------------------------------------\14-12----------12------|
A|--------------------------------------------------------12-12h14---------|
E|-------------------------------------------------------------------------|

e|-----------15(15)---12---12-10/8-----------------------------------------|
B|-/12-------15h17-13-12-----------8-8h10/12-------------------------------|
G|-------------------------------------------------------------------------|
D|-------------------------------------------------------------------------|
A|-------------------------------------------------------------------------|
E|-------------------------------------------------------------------------|


e|-------------------------------------------------------------------------|
B|-------------------------------------------------------------------------|
G|-------------------------------------------------------------------------|
D|-------------------------------------------------------------------------|
A|-------------------------------------------------------------------------|
E|-------------------------------------------------------------------------|
| /  slide up
| \  slide down
| h  hammer-on
| p  pull-off
| ~  vibrato
| +  harmonic
| x  Mute note
============================================================================
Tap to rate this tab
# A B C D E F G H I J K L M N O P Q R S T U V W X Y Z