Song name
# A B C D E F G H I J K L M N O P Q R S T U V W X Y Z

Buckethead - Sterling Scapula tab

Beginning

---------------------------------------------|----------------|
---------------------------------------------|----------------|
--------------------------------------------------------------|
--------------------------------------------------------------|
-----------------8-7-6-6-----------------6---|----------------|
-6-8-8-8-6-8-8-8---------6-8-8-8-6-8-8-8----------------------|

---------------------------------------|
---------------------------------------|
---------------------------------------| x 2
---------------------------------------|
-----------------8-7-6-8-7-6-8-7-6-6---|
-6-8-8-8-6-8-8-8-----------------------|

2nd Part

------------------------------------------------------------------|
------------------------------------------------------------------|
------------------------------------------------------------------|
------------------------------------------------------------------|
--6-6-6-6-6-5-5-5-5-5-6-6-6-8-8-8-8-8-6-6-6-6-6-8-8-8--|----------|
--4-4-4-4-4-4-4-4-4-4-4-4-4-6-6-6-6-6-6-6-6-6-6-6-6-6--|----------|

Ending Part

--------------------------------------------------------------|
---------------------------------------------|----------------|
--------------------------------------------------------------|
---------------------------------------------|----------------|
---------6-6--------9-8-6-8-6----------------|----------------|
-8--6-8------6-8---------------6-8----------------------------|
Tap to rate this tab
 
# A B C D E F G H I J K L M N O P Q R S T U V W X Y Z