Song name
# A B C D E F G H I J K L M N O P Q R S T U V W X Y Z

Buckethead - I-5 Binge tab

Artist : Buckethead
Song   : I-5 Binge
Tuning : Eb Ab Db Gb Bb Eb

This whole song is really fast

 Riff 1
|----0--------------0---------------|----0--------------0---------------|
|--------------6--------------6-----|--------------6--------------6-----|
|----------8--------------8---------|----------8--------------8---------|
|--------7-------7------7-------7---|--------7-------7------7-------7---|
|------------8--------------8-------|------------8--------------8-------|
|----0--------------0---------------|----0--------------0---------------|

 Riff 2
|--8p6-----0------------------------|
|------7p6------0-------------------|
|-----------6p5-------0-------------|
|-----------------8p6-------0-------|
|-----------------------8p6---------|
|--0---------------------------8p6--|

 Riff 3
|----0--------------0---------------|----0--------------0---------------|
|--------------6--------------6-----|--------------6--------------6-----|
|----------8--------------8---------|----------8--------------8---------|
|--------7-------7------7-------7---|--------7-------7------7-------7---|
|------------8--------------8-------|------------8--------------8-------|
|----0--------------0---------------|----0--------------0---------------|

 Riff 4
|----------------------------0------|
|----------------------0-------6p4--|
|----------------0-------5p4--------|
|----------0-------6p4--------------|
|--0---------6p4--------------------|
|------6p4--------------------------|

 Riff 5
|----0--------------0---------------|----0--------------0---------------|
|--------------6--------------6-----|--------------6--------------6-----|
|----------8--------------8---------|----------8--------------8---------|
|--------7-------7------7-------7---|--------7-------7------7-------7---|
|------------8--------------8-------|------------8--------------8-------|
|----0--------------0---------------|----0--------------0---------------|

That's it, please rate
Tap to rate this tab
 
# A B C D E F G H I J K L M N O P Q R S T U V W X Y Z