Song name
# A B C D E F G H I J K L M N O P Q R S T U V W X Y Z

Buckethead - Chicken Feed tab

Buckethead
Chicken Feed
Eb Ab Db Gb Bb Eb


E-----------16----------------------------------------------------------------10------------------|
B-----------------------15--------------------------------------------------------------------12--|
G--14-14-14-------------------------13-------------------------------12-9-9-9---------------------|
D--------------13-13-13-------------------------12-------10--------------------------11-11-11-----|
A--------------------------12-12-12-------------------------11-11-11------------------------------|
E--------------------------------------11-11-11----9-9-9------------------------------------------|

                            x2
E |---------------------------|------------------------------|
B |-5-----------------5-------|---4---------3--------2-------|
G |----5-----------5-----5----|------4---------3---------2---|
D |-------6-----6-------------|---------5--------4-----------|
A |----------7----------------|------------------------------|
E |---8--8--8--8--8--8--8--8--|-----7--7--7--6--6--6---5---5-|

                               /|\
                                |

For These 2 parts I pick the lower notes with my thumb and the higher notes I just pick 
my right middle finger

                                |
                               \|/
E|----------------------------------|------6---2---4--2-|
B|---------------------------7----3-|--5--------------2-|
G|---------------6---2---4----------|----2---4---6----0-|
D|---5---1---3-------------3----5---|7----------------0-|
A|-------------2---4---6------------|-----------------0-|
E|-1---3---5------------------------|-----------------0-|
Tap to rate this tab
# A B C D E F G H I J K L M N O P Q R S T U V W X Y Z