Song name
# A B C D E F G H I J K L M N O P Q R S T U V W X Y Z

Buckethead - Aunt Suzie tab

e--------------------7  <-----|
B--------------------8--------|    I'm not sure
G---------0----------0--------|    about this part
D------9----9----9------------|    because all i have
A---7---------10--------------|    is an acoustic so sorry for any mistakes
E-----------------------------|

e--------------------------|
B--------------------------|
G-------0---------0--------|
D-----7---7-----5---4------|
A---5---------3------------|
E--------------------------|


And thats the entire rhythm for all 11 minutes of greatness, I think.
but heres what I think is the first 10 seconds or so of the lead is

e----12------------------12---------12-------------------------------------------------------|
B--------10p8h10-10---12----12/15-------10--10/12--------------------------------------------|
G----------------------------------------------14-12-11-12--9/11-----------------------------|
D----------------------------------------------------------------14p12-12h14-----------------|
A----------------------------------------------------------------------------10h12-12/14-----|
E--------------------------------------------------------------------------------------------|

Thanks for tryin it out. Again, im sorry for any mistakes. I've just been listening to 
song obsesivley and i couldn't help but try to teach myself how to play it.
Tap to rate this tab
# A B C D E F G H I J K L M N O P Q R S T U V W X Y Z