Song name
# A B C D E F G H I J K L M N O P Q R S T U V W X Y Z

Buckethead - Conveyor Belt Blues tab

Help us improve GuitareTab! Take a short survey!
                Conveyor Belt Blues - Buckethead




standard tuning

Intro I
e--------------1------1-----------------|
b----1-1-1h3----1h3----4---2------------|
g---------------------------2-----------|  
d--5------------------------------------|
a---------------------------------------|
E---------------------------------------|x4

Intro II
e---------------1------1-----------------|
b------1-1-1h3---1h3-----4---2-----------|
g-----------------------------2----------|  
d--5---0~-----------------------0--------|
a----------------------------------------|
E----------------------------------------|x2

pre-chorus 
e--------------1------1----------------|
b-----1-1-1h3---1h3-----4---2--2~------|
g-------------------------------2~-----|
d--5---0~------------------------------|
a-------------------------------0~-----|
E--------------------------------------|

chorus
e-----------------------------------------------------|
b--3~--------------0~------2~-----3----0~----0~-------|
g--4~------2~------1~------2~-----4----2~----1~-------|
d----------3~------2~------------------------2~-------|
a--------------------------0~-------------------------|
E--3~------1~------0~-------------3~---1~-------------|

part three
e--------------1------1-------------------|
b----1-1-1h3----1h3----4---2-0--2---------|
g-------------------------------2---------|  
d--5--------------------------------------|
a-------------------------------0---------|
E-----------------------------------------|x2

chorus
e-----------------------------|
b--3~--------------0~--0------|
g--4~------2~------1~--X------|
d----------3~------2~---------|
a-----------------------------|
E--3~------1~------0~---------|

part four
e------------X2P1--1------1---------------------|
b----1-1-1h3----------1h3----4---2-0--2---------|
g-------------------------------------2---------|
d--5--------------------------------------------|  
a-------------------------------------0---------|
E-----------------------------------------------|x3

outro
e--------------1------1------------------|
b----1-1-1h3----1h3----4---2-------------|
g---------------------------2------------|  
d--5-------------------------------------|
a----------------------------------------|
E----------------------------------------|x2

| /  slide up
| \  slide down
| h  hammer-on
| p  pull-off
| ~  vibrato
| +  harmonic
| x  Mute note
===============================================================================
Related for Conveyor Belt Blues tab