Song name
# A B C D E F G H I J K L M N O P Q R S T U V W X Y Z

Buckethead - The Black Forest tab

                               *************************
                               *    THE BLACK FOREST   *
                               *************************






e---0-0-0-0-0-0-0-0-0-0-0-0-0-0-0-0--|  this is the begging riff of
B---4-4-4-4-4-4-4-4-4-4-4-4-4-4-4-4--|  this strange little song
G------------------------------------|  that could have only been
D----2-1-2---2-1-2---2-1-2-1-2-1-2---|  concocted by the mind of
A------------------------------------|  Buckethead
E--1-------1-------1-----------------|


e------------------------------------7-6-5-4-3-2-1-2-3-4-5-6-7-6-5-4-3-2-1-2-3-4-5-6-7---| 
B--2p1-0h1-2p1-0h1-2p1--1-1-1-1----------------------------------------------------------|   
G----------------------5s4s3s2-----------------------------------------------------------|  
D----------------------------------------------------------------------------------------|
A----------------------------------------------------------------------------------------|  
E----------------------------------------------------------------------------------------| 
                                  

e---------------------12-11-10-9-------------------13-----------------14------------12-11-10-9|
B-7--6--5--6--7--6----11-10-9--8--------------------------------------------7--6----11-10-9--8|
G-6--5--4--5--6--5----10-9--8--7-----9-10-11-12-13------9-10-11-12-13-------6--5----10-9--8--7|
D-5--4--3--4--5--4----------------------------------------------------------5--4--------------|
A---------------------------------------------------------------------------------------------|
E---------------------------------------------------------------------------------------------|




e---0-0-0-0-0-0-0-0-0-0-0-0-0-0-0-0-0-0-0-0-0-0-0-0-0-0-0-0-0-0-0-0--------|  
B---4-4-4-4-4-4-4-4-4-4-4-4-4-4-4-4-4-4-4-4-4-4-4-4-4-4-4-4-4-4-4-4--------|  
G--------------------------------------------------------------------------|  
D----2-1-2-1-2-1-2---2-1-2-1-2-1-2---2-1-2-1-2-1-2---2-1-2-1-2-1-2---------|  
A--------------------------------------------------------------------------|  
E--1---------------1---------------1---------------1-----------------------|





e---0-0-0-0------------0-0-0-0---------0-0-0-0-0-0-0-0-0-0-0-4----|
B---4-4-4-4------------4-4-4-4---------4-4-4-4-4-4-4-4-4-4-4-0----|
G----1---0------------------------------1---0-----------1---0-----|
D--2---2--------------1-2-1-2---------2---2---1-2-1-2-2---2-------|
A-----------------------------------------------------------------|
E-----------------------------------------------------------------|




e-----------------------------------------------------------------|
B-----------------------------------------------------------------|
G-------------------------2-1------------------------2-1----------|
D--------------------2-1-2----------------------2-1-2-------------|
A-----------------4-3-----------------------4-3-------------------|
E------4-3-----6-5---------------4-3-----6-5----------------------|





e----------------------------------------------------------------------|
B---3h4-4-5-p4--3h4-4-5-p4--3h4-4-5-p4----6-5-4-3-3-4-5-6--------------|
G------------------------------------------------------6-5-4-3-3-4-5-6-|
D----------------------------------------------------------------------|
A----------------------------------------------------------------------|
E----------------------------------------------------------------------|







Thats about the first half of the song.  Just throw in some more random
slide picking and  you got it.  And for the second part you have 
to slide your pinky from one fret to the other but still pick each
individual note
Tap to rate this tab
# A B C D E F G H I J K L M N O P Q R S T U V W X Y Z