Guitaretab - guitar tabs
Song name
# A B C D E F G H I J K L M N O P Q R S T U V W X Y Z

Buckethead - Disecto tab

Artist :	Buckethead
Song   :	Disecto
Album  :	Decoding the Tomb of Bansheebot
Tuning : 	Eb Ab Db Gb Bb Eb

All I could get was the distorted parts so if someone else has the other parts and wants
e-mail them to me feel free to, I will give whoever it is the credit.  My email
is karensnowberger@aol.com

                                                   x2
e|-----------------------------------------------------|
B|-o-------------------------------------------------o-|
G|-----------------------------------------------------|
D|----9-11---9-11---9-11---9-11---9-9---9-11--7--7-----|
A|-o--7/9----7/9----7/9----7/9----7-7---7/9---5--5---o-|
E|-----------------------------------------------------|

  Thenů
e|------------------------------------------------------------------|
B|------------------------------------------------------------------|
G|------------------------------------------------------------------|
D|---9-11---9-11---9-11---9-11---9-9---9-11--7--7-7-9-5-------------|
A|---7/9----7/9----7/9----7/9----7-7---7/9---5--5-5-7-3---8-7-5-----|
E|--------------------------------------------------------6-5-3-----|

e|-----------------------------------------------------|
B|-o-------------------------------------------------o-|
G|-----------------------------------------------------|
D|----9-11---9-11---9-11---9-11---9-9---9-11--7--7-----|
A|-o--7/9----7/9----7/9----7/9----7-7---7/9---5--5---o-|
E|-----------------------------------------------------|

e|------------------------------------------------------------------|
B|------------------------------------------------------------------|
G|------------------------------------------------------------------|
D|---9-11---9-11---9-11---9-11---9-9---9-11--7--7-7-9-5-------------|
A|---7/9----7/9----7/9----7/9----7-7---7/9---5--5-5-7-3---8-7-5-----|
E|--------------------------------------------------------6-5-3-----|
[ Tab from: http://www.guitaretab.com/b/buckethead/111602.html ]
                              x3
e|-------------------------------|
B|-o---------------------------o-|
G|-------------------------------|
D|----4---5--7--9--11-12-12------|
A|-o--2---3--5--7--9--10-10----o-|
E|-------------------------------|

e|--------------------------------|
B|--------------------------------|
G|--------------------------------|
D|---7---5--7--3--5---------------|
A|---5---3--5--1--3--2--4---------|
E|-------------------0--2---------|

                              x3
e|-------------------------------|
B|-o---------------------------o-|
G|-------------------------------|
D|----4---5--7--9--11-12-12------|
A|-o--2---3--5--7--9--10-10----o-|
E|-------------------------------|

e|--------------------------------|
B|--------------------------------|
G|--------------------------------|
D|---7---5--7--3--5---------------|
A|---5---3--5--1--3--2--4---------|
E|-------------------0--2---------|

e|------------------------|
B|------------------------|
G|------------------------|
D|---4--------------------|
A|---2---------4----------|
E|-------------2----------|

E|------------------------------------------|
B|------------------------------------------|
G|-------------------------------------8----|
D|-------------------------------------6----|
A|--4-4-----------8-----4-4-----------------|
E|--2-2--22222222-6-----2-2--22222222-------|

E|------------------------------------------------------|
B|------------------------------------------------------|
G|------------------------------------------------------|
D|------------------------------------------------------|
A|--4-4------------5-5----4-4---------------------------|
E|--2-2--22222222--3-3----2-2--222222222222222222-------|

E|--------------------------------------------|
B|--------------------------------------------|
G|--------------------------------------------|
D|--------------------------------------------|
A|--4-4------------4---4---4------------4-----|
E|--2-2--22222222--2---2---2--22222222--2-----|

please rate
Related for Disecto tab