Song name
# A B C D E F G H I J K L M N O P Q R S T U V W X Y Z

Buckethead - We Can Rebuild Them tab

We Can Rebuild Them
Crime Slunk Scene

figure out the order yourself

|------------------------------------------|
|------------------------------------------|
|------------------------------------------|  x4
|------------------------------------------|
|--7h9--7----------------------------------|
|----------9--7----9---0-2--0-2------------|


|-------------------------------------------------------|
|-------------------------------------------------------|
|-------------------------------------------------------|
|-------------------------------------------------------|
|-10-(7)-10-(7)-10-(7)-10-(7)-(7)-10-(7)-(7)-10-(7)-(7)-|
|-------------------------------------------------------|
      .      .      .      .   .      .   .      .   .

|-------------------------------------------------------|
|-------------------------------------------------------|
|-------------------------------------------------------|
|-------------------------------------------------------|
|-9-(5)--9-(5)--9-(5)--9-(5)-(5)--9-(5)-(5)--9-(5)-(5)--|
|-------------------------------------------------------|
     .      .      .      .   .      .   .      .   .

|-------------------------------------------------------|
|-------------------------------------------------------|
|-------------------------------------------------------|
|-------------------------------------------------------|
|-7-(3)--7-(3)--7-(3)--7-(3)-(3)--7-(3)-(3)--7-(3)-(3)--|
|-------------------------------------------------------|
     .      .      .      .   .      .   .      .   .

|-------------------------------------------------------|
|-------------------------------------------------------|
|-------------------------------------------------------|
|-------------------------------------------------------|
|-9-(5)--9-(5)--9-(5)--9-(5)-(5)--9-(5)-(5)--9-(5)-(5)--|
|-------------------------------------------------------|
     .      .      .      .   .      .   .      .   .


|------------------------------------------|
|------------------------------------------|
|------------------------------------2-----|
|-----4-----4------------4-----4-----2-----|  x2
|------------------------------------0-----|
|-2-2---2-2---2-2----2-2---2-2---2---------|

|------------------------------------------|
|------------------------------------------|
|------------------------------------------|
|------9-7-9-------------------------------|  x4
|------7-5-7---------5~~-------------------|
|-0--0-------0---5-7-----3-----------------|


|------------------------------------------|
|------------------------------------------|
|------------------------------------------|
|------------------------------------------|  x4
|------7-5-7---------5~~-------------------|
|-0-0--------0---5-7-----3-----------------|
  . .  . . . .   . . .   .

|------------------------------------------|
|------------------------------------------|
|------------------------------------------|
|------------------------------------------|  x?
|------5h7~~~--------5h7~~-------7------5--|
|-0--0----------0--0----------0--5---0--3--|
  .  .          .  .          .      .


...have fun
Tap to rate this tab
# A B C D E F G H I J K L M N O P Q R S T U V W X Y Z