Song name
# A B C D E F G H I J K L M N O P Q R S T U V W X Y Z

Buckethead - Interworld And The New Innocence Live tab

This is the tab of the youtube vid of Buckethead and Praxis live of the secret Recipe DVD!!!!
My first tab so please comment and rate
Only tabing the start as i will add on it eventually

Narrations

V= Vibrato (buckethead uses vibrato throughout the whole solo so i will just
lable the improtant parts)
B= Bend
S= Slide
BR= Bend Release
P= Pull off

e-------------------------------------------------------------------------|
B------10-----------------------------------------------------------------|
G----7---7---------------7--6----------------4--------------4-------------|
D--9-----------------11--------7----------7----5--4-------7---5-----------|
A----------------9---------------------5----------------5-----------------|
E------------7----------------------3-----------------3-------------------|
solo begins
e-----------------------------------------------------------------------|
B-7VVV-7VVV-7VVV-7-8------10--8-7VVV--7--7--8------------------10-7-----|
G--------------------8-------------------------7VVVV--7VVVV-------------|
D-----------------------9-------------------------------------9---------|
A-----------------------------------------------------------------------|
E-----------------------------------------------------------------------|

e-9B10------------------------------------------------------------------|
B------10--12--10--7VVV---7--8------------------------------------------|
G--------------------------------7VVV----7S6--7--6----------------------|
D---------------------------------------------------7VVV----------------|
A-----------------------------------------------------------------------|
E-----------------------------------------------------------------------|

e----------------------------------------------------------------17-----|
B------------------------14--15--17--17B19BR17P14----14--15--17---------|
G----------14--16--16VVV--------------------------16--------------------|
D----S16----------------------------------------------------------------|
A-----------------------------------------------------------------------|
E-----------------------------------------------------------------------|

e--17---17VVV---15--14VVV---14--15--17----------------------------------|
B---------------------------------------15VVV---15---14---15VVV---------|
G-----------------------------------------------------------------------|
D-----------------------------------------------------------------------|
A-----------------------------------------------------------------------|
E-----------------------------------------------------------------------|
Tap to rate this tab
# A B C D E F G H I J K L M N O P Q R S T U V W X Y Z