Song name
# A B C D E F G H I J K L M N O P Q R S T U V W X Y Z

Buckethead - Soothsayer Dedicated To Aunt Suzie tab

Gtr I (E A D G B E) - 'Untitled'
Gtr II (E A D G B E) - 'Untitled'


INTRO

  Q=77
 4/4
  Gtr I
  E  E  E. S S  S  S S S  S E   E E E Q  E S S E
|----------9-8----------------|------------------|
|------11---------11-9-9-11-9-|---9---7--6-7-6---|
|---10---------10-------------|-8---8-6--------6-|
|-8---------------------------|------------------|
|-----------------------------|------------------|
|-----------------------------|------------------|


  E  E  E. S S S  S S S  S E     E   E  E   H
|----------9-8-----------------|-----------------|
|------11--------11-9-9-11-9---|-----9------6----|
|---10-------------------------|-8------8---6----|
|-8------------8---------------|------------4----|
|------------------------------|-----------------|
|------------------------------|-----------------|


  E  E  E. S S  S  S S S  S E   E E E Q  E S S E
|----------9-8----------------|------------------|
|------11---------11-9-9-11-9-|---9---7--6-7-6---|
|---10---------10-------------|-8---8-6--------6-|
|-8---------------------------|------------------|
|-----------------------------|------------------|
|-----------------------------|------------------|


  E  E  E. S S S  S S S  S E   E E E H
|----------9-8---------------|------------|
|------11--------11-9-9-11-9-|---9---7----|
|---10-----------------------|-8---8-6----|
|-8------------8-------------|------------|
|----------------------------|------------|
|----------------------------|------------|


  E  E  E. S S S  S S S  S E   E E E Q  E S S E
|----------9-8---------------|------------------|
|------11--------11-9-9-11-9-|---9---7--6-7-6---|
|---10-----------------------|-8---8-6--------6-|
|-8------------8-------------|------------------|
|----------------------------|------------------|
|----------------------------|------------------|


  E  E  E. S S S  S S S  S E   E E E Q  Q.
|----------9-8---------------|---------------|
|------11--------11-9-9-11-9-|---9---7--6----|
|---10-----------------------|-8---8-6-------|
|-8------------8-------------|---------------|
|----------------------------|---------------|
|----------------------------|---------------|


    E  E  E. S S S  S S S  S E   E E E H     4x
||-----------9-8---------------|-----4-------||-|
||o------11--------11-9-9-11-9-|-------6----o||-|
||----10-----------------------|---5---6-----||-|
||--8------------8-------------|-6-----4-----||-|
||o----------------------------|------------o||-|
||-----------------------------|-------------||-|


DISTORTED RIFF

  Q  E S S  E  Q   E    +W
|--------------------|-------------|
|--------------------|-------------|
|--------------------|-------------|
|-----------------11-|-(11)--------|
|-8--8-8-8-11-11---9-|--(9)--------|
|-6--6-6-6--9--9-----|-------------|


  Q  E S S  E  E  E E   +Q   S S S S S S S S S S S S
|---------------------|-------------------------------|
|---------------------|-------------------------------|
|---------------------|--------------------1----------|
|---------------------|----------------1-3---4-3------|
|-8--8-----11-11-11-4-|-(4)------1-3-4-----------4-3--|
|-6--6-6-6--9--9--9-2-|-(2)--2-4----------------------|


  Q  E S S  E  E   E E   +Q    H.        Q  E S S  E  E  E E   +W
|----------------------|---------------|---------------------|--------|
|----------------------|---------------|---------------------|--------|
|----------------------|---------------|---------------------|--------|
|----------------------|------11-------|---------------------|--------|
|----------11-11-/11-9-|-(9)---9-------|-8--8-----11-11-11-4-|-(4)----|
|-6--6-6-6--9--9-------|---------------|-6--6-6-6--9--9--9-2-|-(2)----|


CLEAN RIFF


    E  E  E. S S  S  S S S  S E   E E E Q  E S S E
||-----------9-8----------------|------------------|
||o------11---------11-9-9-11-9-|---9---7--6-7-6---|
||----10---------10-------------|-8---8-6--------6-|
||--8---------------------------|------------------|
||o-----------------------------|------------------|
||------------------------------|------------------|


  E  E  E. S S S  S S S  S E   E E E H
|----------9-8---------------|-------------||-|
|------11--------11-9-9-11-9-|---9---6----o||-|
|---10-----------------------|-8---8-6-----||-|
|-8------------8-------------|-------4-----||-|
|----------------------------|------------o||-|
|----------------------------|-------------||-|


DISTORTED RIFF

  Q  E S S  E  Q   E    +W
|--------------------|-------------|
|--------------------|-------------|
|--------------------|-------------|
|-----------------11-|-(11)--------|
|-8--8-8-8-11-11---9-|--(9)--------|
|-6--6-6-6--9--9-----|-------------|


  Q  E S S  E  E  E E   +Q   S S S S S S S S S S S S
|---------------------|-------------------------------|
|---------------------|-------------------------------|
|---------------------|--------------------1----------|
|---------------------|----------------1-3---4-3------|
|-8--8-----11-11-11-4-|-(4)------1-3-4-----------4-3--|
|-6--6-6-6--9--9--9-2-|-(2)--2-4----------------------|


  Q  E S S  E  E   E E   +Q    H.        Q  E S S  E  E  E E   +W
|----------------------|---------------|---------------------|--------|
|----------------------|---------------|---------------------|--------|
|----------------------|---------------|---------------------|--------|
|----------------------|------11-------|---------------------|--------|
|----------11-11-/11-9-|-(9)---9-------|-8--8-----11-11-11-4-|-(4)----|
|-6--6-6-6--9--9-------|---------------|-6--6-6-6--9--9--9-2-|-(2)----|
                                                       -rapid killswitch 

REPEAT DISTORTED RIFF BEFORE PROCEEDING 


SOLO A


   S    S  S  S  S  S  S  S  S  S  S  S  S  S  S  S
|---------------------------11-11-------------------|
|---------13-13-14-14-11-11-------14-14-13-13-14-14-|
|-10---10-------------------------------------------|
|---------------------------------------------------|
|---------------------------------------------------|
|---------------------------------------------------|
|
| Gtr II
|  H..                                         E
|---------------------------------------------------|
|---------------------------------------------------|
|---------------------------------------------------|
|--8------------------------------------------------|
|--8-------------------------------------------4----|
|--6-------------------------------------------2----|


   S   S  S  S  S  S  S  S  S  S  S  S  S  S  S  S
|--------------------------------------------------|
|-11--11-13-13-------------------------------14-14-|
|--------------10-10-13-13-11-11-10-10-11-11-------|
|--------------------------------------------------|
|--------------------------------------------------|
|--------------------------------------------------|
|
| +W
|--------------------------------------------------|
|--------------------------------------------------|
|--------------------------------------------------|
|--------------------------------------------------|
|-(4)----------------------------------------------|
|-(2)----------------------------------------------|


   S    S  S  S  S  S  S  S S S  S  S  S  S  S  S
|---------------------------9-9-11-11-------------|
|---------13-13-14-14-----------------13-13-14-14-|
|-10---10-------------10-10-----------------------|
|-------------------------------------------------|
|-------------------------------------------------|
|-------------------------------------------------|
|
|  H..                                       E
|-------------------------------------------------|
|-------------------------------------------------|
|-------------------------------------------------|
|--8----------------------------------------------|
|--8-----------------------------------------4----|
|--6-----------------------------------------2----|


   S   S  S  S  S  S  S  S  S  S  S  S  S  S  S  S
|--------------------------------------------------|
|-13--13-------------------------------------------|
|--------13-13-10-10-11-11-13-13-11-11-10-10-------|
|--------------------------------------------11-11-|
|--------------------------------------------------|
|--------------------------------------------------|
|
| +W
|--------------------------------------------------|
|--------------------------------------------------|
|--------------------------------------------------|
|--------------------------------------------------|
|-(4)----------------------------------------------|
|-(2)----------------------------------------------|


  S   S  S  S  S  S S S  S  S  S  S  S  S S S
|---------------------------------------------|
|---------------------------------------------|
|-------------13-13-----------11-11-10-10-8-8-|
|-8---8-11-11-------8-8-11-11-----------------|
|---------------------------------------------|
|---------------------------------------------|
|
| H..                                     E
|---------------------------------------------|
|---------------------------------------------|
|---------------------------------------------|
|-8-------------------------------------------|
|-8---------------------------------------4---|
|-6---------------------------------------2---|


   S   S S S  S  S S S  S  S S S  S  S S S
|------------------------------------------|
|------------11-11-9-9-11-11-----------9-9-|
|-10--10-6-6-----------------8-8-10-10-----|
|------------------------------------------|
|------------------------------------------|
|------------------------------------------|
|
| +W
|------------------------------------------|
|------------------------------------------|
|------------------------------------------|
|------------------------------------------|
|-(4)--------------------------------------|
|-(2)--------------------------------------|


   S    S  S  S  S  S S S  S  S  S  S  S  S  S  S
|-------------------------------------------------|
|-------------------------------------------------|
|-11---11-10-10-----------------13-13-11-11-10-10-|
|---------------11-11-8-8-11-11-------------------|
|-------------------------------------------------|
|-------------------------------------------------|
|
|  H..                                       E
|-------------------------------------------------|
|-------------------------------------------------|
|-------------------------------------------------|
|--8----------------------------------------------|
|--8-----------------------------------------4----|
|--6-----------------------------------------2----|


   S   S  S  S  S  S  S  S  S  S  S  S  S  S S S
|--------------------13-13-----------------------|
|-13--13-14-14-16-16-------14-14-13-13-11-11-9-9-|
|------------------------------------------------|
|------------------------------------------------|
|------------------------------------------------|
|------------------------------------------------|
|
| +W
|------------------------------------------------|
|------------------------------------------------|
|------------------------------------------------|
|------------------------------------------------|
|-(4)--------------------------------------------|
|-(2)--------------------------------------------|


SOLO A

                                                    ~~~
  S  S  S S S  S  S S S   S  S S  S  S  E    +Q     H     Q
|-----------------------------------------|-------------------|
|---------9---------9----------9----------|-------------------|
|--------------------------------10-11-10-|-(10)--------------|
|-8-10-11---8-10-11---8--10-11------------|-------/11---------|
|-----------------------------------------|--------------11\--|
|-----------------------------------------|-------------------|
|
| H                   Q.                E    +W
|-----------------------------------------|-------------------|
|-----------------------------------------|-------------------|
|-----------------------------------------|-------------------|
|-8---------------------------------------|-------------------|
|-8-------------------6-----------------4-|--(4)--------------|
|-6-------------------4-----------------2-|--(2)--------------|


  S  S  S S S  S  S S S   S  S S  S  S  E    +E.  S  E S  S   S S  S S  Q
|-----------------------------------------|--------------------------9-11b13---|
|---------9---------9----------9----------|---------------------9-11-----------|
|--------------------------------11-10-10-|-(10)-11---------/10----------------|
|-8-10-11---8-10-11---8--10-11------------|---------11-8-11--------------------|
|-----------------------------------------|------------------------------------|
|-----------------------------------------|------------------------------------|
|
| H                   Q.                E    +W
|-----------------------------------------|------------------------------------|
|-----------------------------------------|------------------------------------|
|-----------------------------------------|------------------------------------|
|-8---------------------------------------|------------------------------------|
|-8-------------------6-----------------4-|--(4)-------------------------------|
|-6-------------------4-----------------2-|--(2)-------------------------------|


  S  S  S S S  S  S S S   S  S S  S  S  E    +E   S  S  E  S S E S S E   E
|-----------------------------------------|---------------------------------|
|---------9---------9----------9----------|---------------------------------|
|--------------------------------11-10-10-|-(10)-11-------------------------|
|-8-10-11---8-10-11---8--10-11------------|---------11-11-------------------|
|-----------------------------------------|---------------11s8-6-4s6-6b8r4--|
|-----------------------------------------|---------------------------------|
|
| H                   Q.                E    +W
|-----------------------------------------|---------------------------------|
|-----------------------------------------|---------------------------------|
|-----------------------------------------|---------------------------------|
|-8---------------------------------------|---------------------------------|
|-8-------------------6-----------------4-|--(4)----------------------------|
|-6-------------------4-----------------2-|--(2)----------------------------|


  S  S  S S S  S  S S  S   S S S  S  S  S  S    S   S  E     Q    Q   Q
|----------------------------9-8----13-13-13-|-13--13-13b14r13-----------|
|---------9---------9------------11----------|------------------/11\-----|
|---------------------10--11-----------------|---------------------------|
|-8-10-11---8-10-11--------------------------|------------------------x--|
|--------------------------------------------|------------------------x--|
|--------------------------------------------|---------------------------|
|
| H                    Q.               E      +W
|--------------------------------------------|---------------------------|
|--------------------------------------------|---------------------------|
|--------------------------------------------|---------------------------|
|-8------------------------------------------|---------------------------|
|-8--------------------6----------------4----|-(4)-----------------------|
|-6--------------------4----------------2----|-(2)-----------------------|


  TP
  H        E     Q      E       +E      S  S  Q   E      E E.  S
|----------------------------|-----------------------------------|
|----------------9-----------|-----------------------------------|
|-8b10----11b13-11b13--13b15-|-(13)b15-15-15-15--13pb15r11-8--11-|
|----------------------------|-----------------------------------|
|----------------------------|-----------------------------------|
|----------------------------|-----------------------------------|
|
| H        Q.           E       +W
|----------------------------|-----------------------------------|
|----------------------------|-----------------------------------|
|----------------------------|-----------------------------------|
|-8--------------------------|-----------------------------------|
|-8--------6------------4----|--(4)------------------------------|
|-6--------4------------2----|--(2)------------------------------|


  Q     S    S    E     E     Q      E       +E  S  S  S  E.    E  Q.
|-----------------------------------------|--------------------13---------|
|-----------------------------9-----------|------9-11-13-13b14----13b14---|
|-8b10--8b10-8b10-8b10-11b13-11b13--13b15-|-(13)--------------------------|
|-----------------------------------------|-------------------------------|
|-----------------------------------------|-------------------------------|
|-----------------------------------------|-------------------------------|
|
| H                     Q.           E       +W
|-----------------------------------------|-------------------------------|
|-----------------------------------------|-------------------------------|
|-----------------------------------------|-------------------------------|
|-8---------------------------------------|-------------------------------|
|-8---------------------6------------4----|--(4)--------------------------|
|-6---------------------4------------2----|--(2)--------------------------|


  Q     Q      E     Q      E
|--------------------------------|
|--------------------9-----------|
|-8b10--8b10--11b13-11b13--13b15-|
|--------------------------------|
|--------------------------------|
|--------------------------------|
|
| H            Q.           E
|--------------------------------|
|--------------------------------|
|--------------------------------|
|-8------------------------------|
|-8------------6------------4----|
|-6------------4------------2----|


   +S   S  T  T  S  S  S  S  S  S S  S a S  E. S
|------------------------------------------------|
|----------------------------------------------6-|
|-(13)-13-11-13-11-10-11-13----------------------|
|---------------------------11-10-8--------/8----|
|-----------------------------------11-8S6-------|
|------------------------------------------------|
|
|  +W
|------------------------------------------------|
|------------------------------------------------|
|------------------------------------------------|
|------------------------------------------------|
|--(4)-------------------------------------------|
|--(2)-------------------------------------------|


  Q      S  S  S  E        Q   E.
|-------------------------16----------|
|-9b11--11-13-14-16b18--------16b18---|
|-------------------------------------|
|-------------------------------------|
|-------------------------------------|
|-------------------------------------|
|
| H                    Q.           E
|-------------------------------------|
|-------------------------------------|
|-------------------------------------|
|-8-----------------------------------|
|-8--------------------6------------4-|
|-6--------------------4------------2-|


   |-----3-----|     |-----3-----|
   E     E     E     E     E     E     Q     Q
|------------------------------------------------|
|-16b18-16b18-16b18-16b18-16b18-16b18-16b18------|
|------------------------------------------------|
|--------------------------------------------x\--|
|--------------------------------------------x\--|
|------------------------------------------------|
|
| +W
|------------------------------------------------|
|------------------------------------------------|
|------------------------------------------------|
|------------------------------------------------|
|-(4)--------------------------------------------|
|-(2)--------------------------------------------|


NOTES IN PARENTHESES FOR LEAD = Whammy 1 octave up

                                               |-3-| |----3----|
    Q   T  T  T  T  T  T  T  T  H          Q   S S S E E E E E E E
|--------------------------------------|----------------------------|
|--------------------------------------|----------------------------|
|-/10--10-10-10-10-10-10-10-10-10------|-(10)--6-8-6-5-6-5-3--------|
|--------------------------------------|---------------------6s3-6--|
|--------------------------------------|----------------------------|
|--------------------------------------|----------------------------|
|
|   H                           Q.   E    +W
|--------------------------------------|----------------------------|
|--------------------------------------|----------------------------|
|--------------------------------------|----------------------------|
|---8----------------------------------|----------------------------|
|---8--------------------------11----4-|--(4)-----------------------|
|---6---------------------------9----2-|--(2)-----------------------|


   H      Q   E  E    S   S  E.   Q.   E  S   S   S
|------------------|---------------------------------|
|---------------11-|-----11-11--(11)-----------------|
|-10----(10)--x----|-------------------x-------------|
|-------------x----|-------------------x-<2>-<2>-<2>-|
|------------------|---------------------<2>-<2>-<2>-|
|------------------|---------------------------------|
|
|  H      Q.     E   +W
|------------------|---------------------------------|
|------------------|---------------------------------|
|------------------|---------------------------------|
|--8---------------|---------------------------------|
|--8-----11------4-|-(4)-----------------------------|
|--6------9------2-|-(2)-----------------------------|


   ~~
                              |-3-|
   H      H          Q     E  S S S Q    S S S S
|----------------|-------------------------------|
|----------------|-------------------------------|
|-10----(10)-----|-(10)--(10)-6-8-6-5b6--3-1---1-|
|----------------|---------------------------3---|
|----------------|-------------------------------|
|----------------|-------------------------------|
|
|  H      Q.   E    +W
|----------------|-------------------------------|
|----------------|-------------------------------|
|----------------|-------------------------------|
|--8-------------|-------------------------------|
|--8-----11----4-|--(4)--------------------------|
|--6------9----2-|--(2)--------------------------|


   ~~
   H      Q.     E     +H     Q   S S S
|-------------------|-------------------|
|--------------(11)-|-(11)--------------|
|-10----(10)--------|-------------------|
|-------------------|---------x\--------|
|-------------------|---------x\--0-0-0-|
|-------------------|-------------0-0-0-|
|
|  H      Q.     E     +W
|-------------------|-------------------|
|-------------------|-------------------|
|-------------------|-------------------|
|--8----------------|-------------------|
|--8-----11------4--|--(4)--------------|
|--6------9------2--|--(2)--------------|



SHRED SOLO A - tabbed in double time


  Q=153
       |------6-------|  |------6-------|  |------6-------|
   Q   S  S  S  S  S  S  S  S  S  S  S  S  S  S  S  S  S  S
|-18--13-14-13----------13-14-13-------11-14-11-13-14-13-11-|
|--------------16-14-16----------16-14----------------------|
|-----------------------------------------------------------|
|-----------------------------------------------------------|
|-----------------------------------------------------------|
|-----------------------------------------------------------|


   |------6-------|  |------6-------|  |------6-------|  |------6-------|
   S  S  S  S  S  S  S  S  S  S  S  S  S  S  S  S  S  S  S  S  S  S  S  S
|----------14-13-11----11-14-11-13-14-13-11-------------14-11-14-11-13-14-|
|-14-13-11----------14----------------------14-13-11-13-------------------|
|-------------------------------------------------------------------------|
|-------------------------------------------------------------------------|
|-------------------------------------------------------------------------|
|-------------------------------------------------------------------------|


   |------6-------|  |------6-------|  |------6-------|  |------6-------|
   S  S  S  S  S  S  S  S  S  S  S  S  S  S  S  S  S  S  S  S  S  S  S  S
|-13-11-------------14-13-14-11-14-11-13-14-13-11-------14-13-14-11-------|
|-------14-13-11-13-------------------------------14-11-------------14-11-|
|-------------------------------------------------------------------------|
|-------------------------------------------------------------------------|
|-------------------------------------------------------------------------|
|-------------------------------------------------------------------------|


   |------6-------|  |------6-------|  |------6-------|  |------6-------|
   S  S  S  S  S  S  S  S  S  S  S  S  S  S  S  S  S  S  S  S  S  S  S  S
|-11-14-11-13-14-11-13-14-13-11----------------11-14-11-13----------------|
|-------------------------------14-13-11-13-14-------------14-13-11-14-13-|
|-------------------------------------------------------------------------|
|-------------------------------------------------------------------------|
|-------------------------------------------------------------------------|
|-------------------------------------------------------------------------|


   |------6-------|  |------6-------|  |------6-------|  |------6-------|
   S  S  S  S  S  S  S  S  S  S  S  S  S  S  S  S  S  S  S  S  S  S  S  S
|-------14-14-14-13-14-11-13-14-13-14-11-13-14-13-14-14-14-13-14-13-11----|
|-14-11----------------------------------------------------------------14-|
|-------------------------------------------------------------------------|
|-------------------------------------------------------------------------|
|-------------------------------------------------------------------------|
|-------------------------------------------------------------------------|


   |------3-------|  |------6-------|  |------6-------|
   S  S  S  S  S  S  S  S  S  S  S  S  S  S  S  S  S  S  S  S  S  S
|-------------11-14-13-11--------------------------------------------|
|-13-11-13-14-------------14-13-11----------------11-13-14-16-14-16--|
|----------------------------------13-11-10-11-13--------------------|
|--------------------------------------------------------------------|
|--------------------------------------------------------------------|
|--------------------------------------------------------------------|


                         |-3--|
   H     +E        E.  S S  S S
|------------------------9-11-9-|
|-16b18-(16)-----/11--13--------|
|-------------------------------|
|-------------------------------|
|-------------------------------|
|-------------------------------|


   |-----6------|  |-----6------|  |-----6------|   |----6----|
   S S  S S  S  S  S S  S  S S  S  S  S  S S  S S   S S  S S  E
|----9-13-9-11-13-11-9----------------------------------------------|
|-13-------------------13-11-9--------------------------------------|
|------------------------------11-10-11-10-8----8--10-8----8-10b11--|
|--------------------------------------------11---------11----------|
|-------------------------------------------------------------------|
|-------------------------------------------------------------------|


   |-----5-----|  |-----5-----|  |-----5-----|  |-----5-----|
   S  S  S  S  S  S  S  S  S  S  S  S  S  S  S  S  S  S  S  S
|----------------------------------------11-13-11----11-14-11-|
|-------------------------------13-14-16----------14----------|
|-10----------10-11-13-11-13-15-------------------------------|
|----10-11-13-------------------------------------------------|
|-------------------------------------------------------------|
|-------------------------------------------------------------|


   |-----5-----|  |-----5-----|  |-----5-----|  |-----5-----|
   S  S  S  S  S  S  S  S  S  S  S  S  S  S  S  S  S  S  S  S
|-13-14-13-11-------------------------------------------------|
|-------------14-13-14-13-11----------------------------------|
|----------------------------13-10-11-13-11-10-11-10----------|
|----------------------------------------------------13-11-10-|
|-------------------------------------------------------------|
|-------------------------------------------------------------|


   |-----6------|  |------6-------|
   S S  S  S S  S  S  S  S  S  S  S  S  S  Q.        +E      E  E  E  E  E E E
|-------------------------------------------------|----------------------------|
|-------------------------------------------------|----------------------------|
|----8----10-8-10-11-13----------10-11-13-13b15---|-(13)b15-13-11-10-----------|
|-11---11---------------10-11-13------------------|------------------13-11-8-6-|
|-------------------------------------------------|----------------------------|
|-------------------------------------------------|----------------------------|


KILL SWITCH SOLO


  Q=77
  S S S S S S S S  S   S S  S S S S S    S  S  S  S  S  S  S  E.   E  S  S S S
|-------------------------------------|----------------------------------------|
|-------------------------------------|----------------------------------------|
|-----------------10--10-8-10---------|----------------13-13-10b11-------------|
|-----------6-8-6-------------8-8-8-8-|--8--8-10-10-11-------------x\----------|
|-8-6---6-8---------------------------|----------------------------x\-8--------|
|-----9-------------------------------|---------------------------------11-9-8-|
|
| H                Q.             E     +W
|-------------------------------------|----------------------------------------|
|-------------------------------------|----------------------------------------|
|-------------------------------------|----------------------------------------|
|-8-----------------------------------|----------------------------------------|
|-8---------------11--------------4---|-(4)------------------------------------|
|-6----------------9--------------2---|-(2)------------------------------------|


BACK TO MAIN THEME

  S  S  S S S  S  S S  S   S  S S  S  S  E    +H      Q   Q
|------------------------------------------|------------------|
|---------9---------9-----------9----------|------------------|
|---------------------------------10-11-10-|-(10)-------------|
|-8-10-11---8-10-11----8--10-11------------|---------16\--x\--|
|------------------------------------------|---------16\--x\--|
|------------------------------------------|------------------|
|
| H                    Q.                E    +W
|------------------------------------------|------------------|
|------------------------------------------|------------------|
|------------------------------------------|------------------|
|-8----------------------------------------|------------------|
|-8-------------------11-----------------4-|--(4)-------------|
|-6--------------------9-----------------2-|--(2)-------------|


  S  S  S S S  S  S S  S   S  S S  S  S  E    +Q     Q        H
|------------------------------------------|---------------------------|
|---------9---------9-----------9----------|---------------------------|
|---------------------------------10-11-10-|-(10)----8b10----(8)b10----|
|-8-10-11---8-10-11----8--10-11------------|---------------------------|
|------------------------------------------|---------------------------|
|------------------------------------------|---------------------------|
|
| H                    Q.                E    +W
|------------------------------------------|---------------------------|
|------------------------------------------|---------------------------|
|------------------------------------------|---------------------------|
|-8----------------------------------------|---------------------------|
|-8-------------------11-----------------4-|--(4)----------------------|
|-6--------------------9-----------------2-|--(2)----------------------|


  S  S  S S S  S  S S  S   S  S S  S  S  E
|------------------------------------------|
|---------9---------9-----------9----------|
|---------------------------------10-11-10-|
|-8-10-11---8-10-11----8--10-11------------|
|------------------------------------------|
|------------------------------------------|
|
| H                    Q.                E
|------------------------------------------|
|------------------------------------------|
|------------------------------------------|
|-8----------------------------------------|
|-8-------------------11-----------------4-|
|-6--------------------9-----------------2-|


                |-----6------| |------6------|  |-----6------|  |-----6-----|
   +S    E  S S T  T T  T T  T T  T  T  T T  T  T T  T  T T  T  T T  T T  T T  T  T  T T  S
|-------------9-9-11-9----9-13-9-11-13-11-9--------------------------------------------------|
|------/11-13----------13-------------------13-11-9-13-11-9----------------------------------|
|-(10)------------------------------------------------------11-10-8-10-8----8-10-11-10-8-10--|
|------------------------------------------------------------------------11------------------|
|--------------------------------------------------------------------------------------------|
|--------------------------------------------------------------------------------------------|
|
|  +W
|--------------------------------------------------------------------------------------------|
|--------------------------------------------------------------------------------------------|
|--------------------------------------------------------------------------------------------|
|--------------------------------------------------------------------------------------------|
|--(4)---------------------------------------------------------------------------------------|
|--(2)---------------------------------------------------------------------------------------|


  S  S  S S S  S  S S  S   S  S S  S  S  E
|------------------------------------------|
|---------9---------9-----------9----------|
|---------------------------------10-11-10-|
|-8-10-11---8-10-11----8--10-11------------|
|------------------------------------------|
|------------------------------------------|
|
| H                    Q.                E
|------------------------------------------|
|------------------------------------------|
|------------------------------------------|
|-8----------------------------------------|
|-8-------------------11-----------------4-|
|-6--------------------9-----------------2-|


                           |------6-------|  |------6-------|  |--6--|
   +E   E.    S  E.     S  T  T  T  T  T  T  T  T  T  T  T  T  T  T  T  S
|------------16-----------------11-13-11----11-14-11-13-14-13-11----------|
|------16b18----16b18-/11-13-14----------14----------------------14-13-11-|
|-(10)--------------------------------------------------------------------|
|-------------------------------------------------------------------------|
|-------------------------------------------------------------------------|
|-------------------------------------------------------------------------|
|
|  +W
|-------------------------------------------------------------------------|
|-------------------------------------------------------------------------|
|-------------------------------------------------------------------------|
|-------------------------------------------------------------------------|
|--(4)--------------------------------------------------------------------|
|--(2)--------------------------------------------------------------------|


  S  S  S S S  S  S S  S   S  S S  S  S  E    +E   E  E  E E  E E  E
|------------------------------------------|-------------------------|
|---------9---------9-----------9----------|--------------------9-11-|
|---------------------------------10-11-10-|-(10)\---------8-10------|
|-8-10-11---8-10-11----8--10-11------------|-------8-10-11-----------|
|------------------------------------------|-------------------------|
|------------------------------------------|-------------------------|
|
| H                    Q.                E    +W
|------------------------------------------|-------------------------|
|------------------------------------------|-------------------------|
|------------------------------------------|-------------------------|
|-8----------------------------------------|-------------------------|
|-8-------------------11-----------------4-|--(4)--------------------|
|-6--------------------9-----------------2-|--(2)--------------------|


            ~~~~~~~~~~~~~~~~~~~~~~
   E.    S  Q.         E     Q          H        H
|-------16--------------------------|------------------|
|-16b18----16b18------16b18-16b18---|-(16)b18----------|
|-----------------------------------|------------------|
|-----------------------------------|------------x\----|
|-----------------------------------|------------x\----|
|-----------------------------------|------------------|
|
|  H               Q.             E    +W
|-----------------------------------|------------------|
|-----------------------------------|------------------|
|-----------------------------------|------------------|
|--8--------------------------------|------------------|
|--8--------------11--------------4-|--(4)-------------|
|--6---------------9--------------2-|--(2)-------------|


   ~~~~~~~~~~~~
   Q   Q    H         +H       S   T    T   S    S   S      S   E
|------------------|--------------------------------------------------|
|-11--11--(11)-----|-(11)----(11)-(9)----------------------(9)--------|
|------------------|------------------(10)-(8)------(8)b10-----(8)b10-|
|------------------|---------------------------(11)-------------------|
|------------------|--------------------------------------------------|
|------------------|--------------------------------------------------|
|
|  H        Q.   E    +W
|------------------|--------------------------------------------------|
|------------------|--------------------------------------------------|
|------------------|--------------------------------------------------|
|--8---------------|--------------------------------------------------|
|--8-------11----4-|--(4)---------------------------------------------|
|--6--------9----2-|--(2)---------------------------------------------|


SHRED SOLO B (these may be quintuplets and not sextuplets, im not sure)


  Q=152
                 |-3--|              |------6-------|  |------6-------|
   Q       E.  S S  S S  S S  Q      S  S  S  S  S  S  S  S  S  S  S  S
|----------------9-11-9----9-14b16--14-13-14-13-11----11-14-11-13-14-13-|
|-16b18--/11--13--------13-------------------------14-------------------|
|-----------------------------------------------------------------------|
|-----------------------------------------------------------------------|
|-----------------------------------------------------------------------|
|-----------------------------------------------------------------------|


   |------6-------|  |------6-------|  |------6-------|  |------6-------|
   S  S  S  S  S  S  S  S  S  S  S  S  S  S  E     S  S  S  S  S  S  S  S
|-11----------------------------------------------------------------------|
|----14-13-14-13-11-------------------------------------------------------|
|-------------------13-11-10-11-11-10----10-10b11-10----------10-11-13-11-|
|-------------------------------------13-------------10-11-13-------------|
|-------------------------------------------------------------------------|
|-------------------------------------------------------------------------|


   |------6-------|  |------6-------|  |------6-------|  |------6-------|
   S  S  S  S  S  S  S  S  S  S  S  S  S  S  S  S  S  S  S  S  S  S  S  S
|-------------11-13-11----11-14-11-13-14-13-11----------------------11-13-|
|-------13-14----------14----------------------14-13-11----11-13-14-------|
|-13-14-------------------------------------------------13----------------|
|-------------------------------------------------------------------------|
|-------------------------------------------------------------------------|
|-------------------------------------------------------------------------|


   |------6-------|  |------6-------|  |------6-------|  |------6-------|
   S  S  S  S  S  S  S  S  S  S  S  S  S  S  S  S  S  S  S  S  S  S  S  S
|----------11-14-11-13-14-13-11-------------------------------------------|
|-11-13-14----------------------14-13-14-13-11----------------------------|
|----------------------------------------------13-11-10-11-10-11-10-------|
|-------------------------------------------------------------------13-11-|
|-------------------------------------------------------------------------|
|-------------------------------------------------------------------------|


   |------6-------|  |------6-------|  |------6-------|  |------6-------|
   S  S  S  S  S  S  S  S  S  S  S  S  S  S  S  S  S  S  S  S  S  S  S  S
|-------------------------------------------------------------------------|
|-------------------------------------------------11-13-11-14-11-14-11-13-|
|----------------------10-11-13----------10-11-13-------------------------|
|-10-11-13-11-10-11-13----------10-11-13----------------------------------|
|-------------------------------------------------------------------------|
|-------------------------------------------------------------------------|


   |------6-------|  |------6-------|  |-----6------|  |----6-----|
   S  S  S  S  S  S  S  S  S  S  S  S  S  S  S S  S S  S  S S  S  E Q
|-------------------------------------------------------------------------|
|-14-13-11----------------------------------------------------------------|
|----------13-11-13-11-10-------------------------------------------8b10--|
|-------------------------13-11-10-11-10----------------------------------|
|----------------------------------------13-11-9-11-9---------------------|
|-----------------------------------------------------13-11-9-11-13-------|


SOLO C

  Q=77
  +H         H           +Q.      S  S  S  S S S  S  S  S S
|----------------------|------------------------------------|
|----------------------|------------------------------------|
|-(8)b10----(8)b10-----|-(8)b10-----------------------------|
|----------------------|---------11-11-10-10-8-8------------|
|----------------------|-------------------------11-11-11-9-|
|----------------------|------------------------------------|
|
|  H         Q.      E   +W
|----------------------|------------------------------------|
|----------------------|------------------------------------|
|----------------------|------------------------------------|
|--8-------------------|------------------------------------|
|--8--------11-------4-|-(4)--------------------------------|
|--6---------9-------2-|-(2)--------------------------------|


  H        H           +Q       H        Q
|--------------------|-------------------------|
|--------------------|-------------------------|
|-8b10----(8)b10-----|-(8)b10--(8)b10r===8b10--|
|--------------------|-------------------------|
|--------------------|-------------------------|
|--------------------|-------------------------|
|
| H        Q.      E   +W
|--------------------|-------------------------|
|--------------------|-------------------------|
|--------------------|-------------------------|
|-8------------------|-------------------------|
|-8-------11-------4-|-(4)---------------------|
|-6--------9-------2-|-(2)---------------------|


  H        H           +H        S S S S S S E
|--------------------|-------------------------|
|--------------------|-------------------------|
|-8b10----(8)b10-----|-(8)b10------------------|
|--------------------|-----------8-6-----------|
|--------------------|---------------8-6-4-6-4-|
|--------------------|-------------------------|
|
| H        Q.      E   +W
|--------------------|-------------------------|
|--------------------|-------------------------|
|--------------------|-------------------------|
|-8------------------|-------------------------|
|-8-------11-------4-|-(4)---------------------|
|-6--------9-------2-|-(2)---------------------|


                                               ~~
  Q  S S S E     S E. S S S    S  S S  S S  S  H
|---------------------------|-----------------------|
|---------------------------|-----------------------|
|---------------------------|------------8-10-10----|
|---------------------------|-----6-8-11------------|
|-----------------------4-6-|--8--------------------|
|-6--9-6-9-8-----9-4--6-----|-----------------------|
|
| H           Q.        E     +W
|---------------------------|-----------------------|
|---------------------------|-----------------------|
|---------------------------|-----------------------|
|-8-------------------------|-----------------------|
|-8----------11---------4---|-(4)-------------------|
|-6-----------9---------2---|-(2)-------------------|


PLAY SOLO A AGAIN BEFORE playing


SOLO D


   S  S S S  S  S S S  S   S S S  S  S E   +E  S S S S S S S S S E.  E
|----------------------------------------|-----------------------------|
|-11-11----------------------------------|-----------------------------|
|-------8-8-10-10------------------------|-----------------------------|
|-----------------8-8-11--11-------------|-------------------6-8-8--/8-|
|----------------------------9-9-11-11-8-|-(8)-4-3-----4-6-8-----------|
|----------------------------------------|---------4-6-----------------|
|
|  H                   Q.              E   +W
|----------------------------------------|-----------------------------|
|----------------------------------------|-----------------------------|
|----------------------------------------|-----------------------------|
|--8-------------------------------------|-----------------------------|
|--8------------------11---------------4-|-(4)-------------------------|
|--6-------------------9---------------2-|-(2)-------------------------|


   S  S S S S S S S  S  S S S E  E   +E   S S  S  S  S  S S S E Q
|----------------------------------|--------------------------------|
|----------------------------------|--------------------------------|
|-10-10-----6-6--------------------|--------------------------------|
|-------8-8----------6----------/8-|-(8)-11-8-11-10-11-10-8-6-------|
|---------------8-8-----9-8-9-8----|--------------------------6-4---|
|----------------------------------|--------------------------------|
|
|  H                 Q.          E   +W
|----------------------------------|--------------------------------|
|----------------------------------|--------------------------------|
|----------------------------------|--------------------------------|
|--8-------------------------------|--------------------------------|
|--8----------------11-----------4-|-(4)----------------------------|
|--6-----------------9-----------2-|-(2)----------------------------|


  S  S  S S S  S  S S  S   S  S S  S  S  E    +E   E  E S S E S S E
|------------------------------------------|------------------------|
|---------9---------9-----------9----------|------------------------|
|---------------------------------11-10-10-|-(10)-11----------------|
|-8-10-11---8-10-11----8--10-11------------|---------11-8-6---------|
|------------------------------------------|----------------6-4-6-8-|
|------------------------------------------|------------------------|
|
| H                    Q.                E    +W
|------------------------------------------|------------------------|
|------------------------------------------|------------------------|
|------------------------------------------|------------------------|
|-8----------------------------------------|------------------------|
|-8-------------------11-----------------4-|--(4)-------------------|
|-6--------------------9-----------------2-|--(2)-------------------|


  S  S  S S S  S  S S  S   S  S S  S  S  E    +H.       Q
|------------------------------------------|----------------|
|---------9---------9-----------9----------|----------------|
|---------------------------------10-11-10-|-(10)-----------|
|-8-10-11---8-10-11----8--10-11------------|-----------/x\--|
|------------------------------------------|-----------/x\--|
|------------------------------------------|----------------|
|
| H                    Q.                E    +W
|------------------------------------------|----------------|
|------------------------------------------|----------------|
|------------------------------------------|----------------|
|-8----------------------------------------|----------------|
|-8-------------------11-----------------4-|--(4)-----------|
|-6--------------------9-----------------2-|--(2)-----------|


   Q.  S  S  E.  S   E E     +Q.  S S E  E Q
|--------------------------|-----------------|
|-11-----------------------|-----------------|
|-----13-11-10--11---------|-----------------|
|-------------------11-8---|-(8)--8-8-8--8-8-|
|--------------------------|-----------------|
|--------------------------|-----------------|
|
|  H             Q.      E   +W
|--------------------------|-----------------|
|--------------------------|-----------------|
|--------------------------|-----------------|
|--8-----------------------|-----------------|
|--8------------11-------4-|-(4)-------------|
|--6-------------9-------2-|-(2)-------------|


   Q  S  S  S  S  E   S  S  E  E      +Q   E  E  E  E  Q
|----------------------------------|-----------------------|
|-13-13-14-13-11-------------------|-----------------------|
|----------------13--10-13-15------|-----------------------|
|-----------------------------11---|-(11)-13-15------------|
|----------------------------------|------------13-13-11---|
|----------------------------------|-----------------------|
|
|  H              Q.             E    +W
|----------------------------------|-----------------------|
|----------------------------------|-----------------------|
|----------------------------------|-----------------------|
|--8-------------------------------|-----------------------|
|--8-------------11--------------4-|--(4)------------------|
|--6--------------9--------------2-|--(2)------------------|


   Q.    S  S  E.  S  E E   +E   S S S S E  H
|-------------------------|-------------------|
|-11----------------------|-------------------|
|-------13-11-10--11------|-------------------|
|--------------------11-8-|-(8)-------------6-|
|-------------------------|-----/8s6-4-6h8----|
|-------------------------|-------------------|
|
|  H           Q.       E   +W
|-------------------------|-------------------|
|-------------------------|-------------------|
|-------------------------|-------------------|
|--8----------------------|-------------------|
|--8----------11--------4-|-(4)---------------|
|--6-----------9--------2-|-(2)---------------|


   Q   S  S  S  S  S   S  S  S  E E   +Q    Q    E  Q.
|-----------------------------------|-------------------|
|-13--13-14-13-11-------------------|-------------------|
|-----------------13--10-10-11-10---|-------------------|
|---------------------------------8-|-(8)--11\---x------|
|-----------------------------------|-----------/x-11\--|
|-----------------------------------|-------------------|
|
|  H               Q.             E   +W
|-----------------------------------|-------------------|
|-----------------------------------|-------------------|
|-----------------------------------|-------------------|
|--8--------------------------------|-------------------|
|--8--------------11--------------4-|-(4)---------------|
|--6---------------9--------------2-|-(2)---------------|


  S  S  S S S  S  S S  S   S  S S  S  S  E    +E.  S  Q   S S E Q
|------------------------------------------|-----------------------|
|---------9---------9-----------9----------|-----------------------|
|---------------------------------11-10-10-|-(10)-11---------------|
|-8-10-11---8-10-11----8--10-11------------|---------11------------|
|------------------------------------------|-------------11-8-8-8--|
|------------------------------------------|-----------------------|
|
| H                    Q.                E    +W
|------------------------------------------|-----------------------|
|------------------------------------------|-----------------------|
|------------------------------------------|-----------------------|
|-8----------------------------------------|-----------------------|
|-8-------------------11-----------------4-|--(4)------------------|
|-6--------------------9-----------------2-|--(2)------------------|


  S  S  S S S  S  S S  S   S  S S  S  S  E
|---------------------------------------------|
|---------9---------9-----------9-------13b14-|
|---------------------------------11-10-------|
|-8-10-11---8-10-11----8--10-11---------------|
|---------------------------------------------|
|---------------------------------------------|
|
| H                    Q.                E
|---------------------------------------------|
|---------------------------------------------|
|---------------------------------------------|
|-8-------------------------------------------|
|-8-------------------11-----------------4----|
|-6--------------------9-----------------2----|


   +E   E  E     S  S  S S  S  E  S S S
|------13---------------------------6-6-|
|-(13)----13b14-11-13-11-9-11-----------|
|-----------------------------10-/8-----|
|---------------------------------------|
|---------------------------------------|
|---------------------------------------|
|
|  +W
|---------------------------------------|
|---------------------------------------|
|---------------------------------------|
|---------------------------------------|
|--(4)----------------------------------|
|--(2)----------------------------------|


  Q     S    S    S    S  Q     E  E    +E   E  Q  T T T T T T T T  S S E
|------------------------------------|--------------------------------6------|
|-9b11--9b11-9b11-9b11r9--9---/11----|----------------------------------9b11-|
|---------------------------------10-|-(10)-11-----8-9-8-6-8-6---6-/8--------|
|------------------------------------|---------11--------------8-------------|
|------------------------------------|---------------------------------------|
|------------------------------------|---------------------------------------|
|
| H                       Q.       E    +W
|------------------------------------|---------------------------------------|
|------------------------------------|---------------------------------------|
|------------------------------------|---------------------------------------|
|-8----------------------------------|---------------------------------------|
|-8----------------------11--------4-|--(4)----------------------------------|
|-6-----------------------9--------2-|--(2)----------------------------------|


                 |--3--|
  +Q       E.    T  T  T   S    S   S   S   S   S  E
|-------------------------------------------------------|
|-(9)b11---9b11--7--9--7--------------------------------|
|-------------------------10---11--13-------------------|
|--------------------------------------11--10--11--8----|
|-------------------------------------------------------|
|-------------------------------------------------------|
|
|  H                       Q.                      E
|-------------------------------------------------------|
|-------------------------------------------------------|
|-------------------------------------------------------|
|--8----------------------------------------------------|
|--8----------------------11-----------------------4----|
|--6-----------------------9-----------------------2----|


       |----6----| |----6----| |----6----| |----6----|  |-----6-----|  |-----6------|
  +Q   T T T T T T T T T T T T T T T T T T T T T T T T  T T T  T T  T  T T  T  T  T T
|--------------------------------------------------------------------------------------|
|--------------------------------------------------------------------------------11-9--|
|------1-3-1----------------------------------------------6-8-10---------8-10-11-------|
|-(8)--------3-1---------------1-3-4-------3-4-6-8-6-8-10--------8-10-11---------------|
|----------------4-3-1---1-3-4-------3-4-6---------------------------------------------|
|----------------------4---------------------------------------------------------------|
|
| +W
|--------------------------------------------------------------------------------------|
|--------------------------------------------------------------------------------------|
|--------------------------------------------------------------------------------------|
|--------------------------------------------------------------------------------------|
|-(4)----------------------------------------------------------------------------------|
|-(2)----------------------------------------------------------------------------------|


              |-3-|
   Q     E.   T T T  S   S  S  S  E E   +E.  E.  S  S  S  S  S  E    S  S  S
|-------------------------------------|------------------------11b12r9-------|
|--------9b11-7-9-7-------------------|--------------------------------11-11-|
|-13b15-------------10--11-13---------|------------10-10-13-13---------------|
|-----------------------------11-10-8-|-(8)-10--11---------------------------|
|-------------------------------------|--------------------------------------|
|-------------------------------------|--------------------------------------|
|
|  H                 Q.             E   +W
|-------------------------------------|--------------------------------------|
|-------------------------------------|--------------------------------------|
|-------------------------------------|--------------------------------------|
|--8----------------------------------|--------------------------------------|
|--8----------------11--------------4-|-(4)----------------------------------|
|--6-----------------9--------------2-|-(2)----------------------------------|


    E   E  E   E   E   E   E   E    E    E   E  E   E   E  Q
|--------------------------------|-------------14-(14)-14-13--|
|-(11)-11-13-(13)-13--14-(14)-14-|-16--(16)-16----------------|
|--------------------------------|----------------------------|
|--------------------------------|----------------------------|
|--------------------------------|----------------------------|
|--------------------------------|----------------------------|
|
|   H              Q.          E   +W
|--------------------------------|----------------------------|
|--------------------------------|----------------------------|
|--------------------------------|----------------------------|
|---8----------------------------|----------------------------|
|---8-------------11-----------4-|-(4)------------------------|
|---6--------------9-----------2-|-(2)------------------------|


            TP               TP
   E     E  H                W
|-------13----------------|--------------|
|-16b18----16b18----------|-16b18--------|
|-------------------------|--------------|
|-------------------------|--------------|
|-------------------------|--------------|
|-------------------------|--------------|
|
|  H               Q.   E   +W
|-------------------------|--------------|
|-------------------------|--------------|
|-------------------------|--------------|
|--8----------------------|--------------|
|--8--------------11----4-|-(4)----------|
|--6---------------9----2-|-(2)----------|


   TP
   W                  H        E     S  S  E  E
|------------------|------------------------------|
|-16b18------------|-16b18----16b18r14-13---------|
|------------------|----------------------15------|
|------------------|-------------------------15\--|
|------------------|------------------------------|
|------------------|------------------------------|
|
|  H        Q.   E   +W
|------------------|------------------------------|
|------------------|------------------------------|
|------------------|------------------------------|
|--8---------------|------------------------------|
|--8-------11----4-|-(4)--------------------------|
|--6--------9----2-|-(2)--------------------------|


MINI-SHRED SOLO

  Q=156
          |---5---| |---5---| |---5---| |---5---|
  H       S S S S S S S S S S S S S S S S S S S S
|---------------6-8-6---6-9-6-8-9-8-6-------------|
|---------6-7-9-------9---------------9-7-6-7-6-7-|
|-8b10--------------------------------------------|
|-------------------------------------------------|
|-------------------------------------------------|
|-------------------------------------------------|


  |---5---| |---5---| |---5---| |---5---|
  S S S S S S S S S S S S S S S S S S S S
|-----------------------------------------|
|-----------------------------------------|
|-8-6-5-6-5-------6---5-6-5-----------6-8-|
|-----------8-6-8---8-------8-6-5-6-8-----|
|-----------------------------------------|
|-----------------------------------------|


  |---5----| |---5---| |---5---|
  S S S  S S S S S S S S S S S S
|------------------------------6-|
|------------------6-7-9-6-7-9---|
|----------6-5-6-8---------------|
|-5-6-8-10-----------------------|
|--------------------------------|
|--------------------------------|


  |---5---| |---5---| |------6------|
  S S S S S S S S S S S  S  S S  S  S
|-8-6---6-9-6-8-9-8-6---------9-11-13-|
|-----9---------------8-10-11---------|
|-------------------------------------|
|-------------------------------------|
|-------------------------------------|
|-------------------------------------|


  |-----5-----|  |----5-----|  |-----5-----|  |-----5-----|
  S  S  S  S  S  S  S  S  S S  S  S  S  S  S  S  S  S  S  S
|------13-13-13-13-11-13-11-9-------------11-13-14----------|
|-9-11------------------------13-11-13-14----------13-14-16-|
|-----------------------------------------------------------|
|-----------------------------------------------------------|
|-----------------------------------------------------------|
|-----------------------------------------------------------|


   |-----5-----|  |-----5-----|  |----5----|
   S  S  S  S  S  S  S  S  S  S  S  S S  S S  Q
|-13-14-11-13-14-13-11------------------------------|
|----------------------14-13-14-13-11-9-11-9--------|
|--------------------------------------------13b15--|
|---------------------------------------------------|
|---------------------------------------------------|
|---------------------------------------------------|


   +H.           Q  H      H
|-------------------------------|
|-------------------------------|
|-(13)b15-----------------13----|
|--------------/11--x\----13----|
|-------------------x\----------|
|-------------------------------|


SWEEPS
                           T
                                       |--3--|
   S  S  S  S  S  S  S  T  T  S  S  S  S  S  S  S  S  S
|-13----------------13h18-21-18p13----13----------------|
|----14----------14----------------14----14----------14-|
|-------15-14-15----------------------------15----15----|
|----------------------------------------------15-------|
|-------------------------------------------------------|
|-------------------------------------------------------|


         T
      |--3--|  |--3--|           |--3--|  |--3--|
   S  S  S  S  S  S  S  S  S  S  S  S  S  S  S  S  Q
|----20-23-20-16-------------------13-16-19-16-13-13b14r==|
|-18-------------18-------------14------------------------|
|-------------------17-------15---------------------------|
|----------------------18-15------------------------------|
|---------------------------------------------------------|
|---------------------------------------------------------|


         |-----5-----|  |-----5-----|  |-----5-----|
   +Q    S  S  S  S  S  S  S  S  S  S  S  S  S  S  S
|-(13)--11-13-11----11--------------------------------|
|----------------14----14-13-14-13--------------------|
|----------------------------------13-11-13-11-10-----|
|-------------------------------------------------11--|
|-----------------------------------------------------|
|-----------------------------------------------------|


   ~~~~~~
   W                 a  a a
|-------------------------9-|
|----------------------11---|
|-11b13r============10------|
|---------------------------|
|---------------------------|
|---------------------------|


                          T        T
           |-----5-----|  |------6-------|
   S S  S  S  S  S  S  S  S  S  S  S  S  S  S  S  S  S  S
|-13-9----------------13-21-18-13-20-18-13----------------|
|------11----------14----------------------14----------14-|
|---------------15----------------------------15----15----|
|---------15s16----------------------------------15-------|
|---------------------------------------------------------|
|---------------------------------------------------------|


   T
                  |-----5-----|
   T  T  S  S  S  S  S  S  S  S  Q      +Q
|-20-16-13----13-16-13----------13b14--(13)--|
|----------14----------14--------------------|
|-------------------------15-----------------|
|----------------------------15--------------|
|--------------------------------------------|
|--------------------------------------------|


   +Q    Q      E  E  Q    Q    E E E E E E
|-(13)--13b14r=13--------|------------------|
|-----------------11-11--|------------------|
|------------------------|-8b9--6-6-6---6---|
|------------------------|------------8-----|
|------------------------|----------------4-|
|------------------------|------------------|



MAIN THEME

  Q=77
  S  S  S S S  S  S S  S   S  S S  S  S  E
|------------------------------------------|
|---------9---------9-----------9----------|
|---------------------------------10-11-10-|
|-8-10-11---8-10-11----8--10-11------------|
|------------------------------------------|
|------------------------------------------|
|
| H                    Q.                E
|------------------------------------------|
|------------------------------------------|
|------------------------------------------|
|-8----------------------------------------|
|-8-------------------11-----------------4-|
|-6--------------------9-----------------2-|


   +Q    E.    S  E  T  T  T  T S  S  E
|-------------13-13---------------------|
|-------13b14-------13-14-13-11-9-------|
|-(10)----------------------------10-10-|
|---------------------------------------|
|---------------------------------------|
|---------------------------------------|
|
|  +W
|---------------------------------------|
|---------------------------------------|
|---------------------------------------|
|---------------------------------------|
|--(4)----------------------------------|
|--(2)----------------------------------|


  S  S  S S S  S  S S  S   S  S S  S  S  E    +Q     H
|------------------------------------------|---------------|
|---------9---------9-----------9----------|---------------|
|---------------------------------11-10-10-|-(10)--(10)----|
|-8-10-11---8-10-11----8--10-11------------|---------------|
|------------------------------------------|---------------|
|------------------------------------------|---------------|
|
| H                    Q.                E    +W
|------------------------------------------|---------------|
|------------------------------------------|---------------|
|------------------------------------------|---------------|
|-8----------------------------------------|---------------|
|-8-------------------11-----------------4-|--(4)----------|
|-6--------------------9-----------------2-|--(2)----------|


  S  S  S S S  S  S S  S   S  S S  S  S  E    Q      H
|------------------------------------------|------------------|
|---------9---------9-----------9----------|--6---------------|
|---------------------------------10-11-10-|--8b10--(8)b10----|
|-8-10-11---8-10-11----8--10-11------------|------------------|
|------------------------------------------|------------------|
|------------------------------------------|------------------|
|
| H                    Q.                E   +W
|------------------------------------------|------------------|
|------------------------------------------|------------------|
|------------------------------------------|------------------|
|-8----------------------------------------|------------------|
|-8-------------------11-----------------4-|-(4)--------------|
|-6--------------------9-----------------2-|-(2)--------------|


  S  S  S S S  S  S S  S   S  S S  S  S  E    +Q   S S S S S S  Q.
|------------------------------------------|----------------------------|
|---------9---------9-----------9----------|----------------------------|
|---------------------------------10-11-10-|-(10)-10s8-8s6-6s5--5b6r====|
|-8-10-11---8-10-11----8--10-11------------|----------------------------|
|------------------------------------------|----------------------------|
|------------------------------------------|----------------------------|
|
| H                    Q.                E    +W
|------------------------------------------|----------------------------|
|------------------------------------------|----------------------------|
|------------------------------------------|----------------------------|
|-8----------------------------------------|----------------------------|
|-8-------------------11-----------------4-|--(4)-----------------------|
|-6--------------------9-----------------2-|--(2)-----------------------|


  H       H
|---------------|
|---------------|
|-3------(3)----|
|---------------|
|---------------|
|---------------|
|
| H
|---------------|
|---------------|
|---------------|
|-8-------------|
|-8-------------|

|-6-------------|



Duration Legend
---------------
W - whole; H - half; Q - quarter; E - 8th; S - 16th; T - 32nd; X - 64th; a - acciaccatura
+ - note tied to previous; . - note dotted; .. - note double dotted
Uncapitalized letters represent notes that are staccato (1/2 duration)
Irregular groupings are notated above the duration line
Duration letters will always appear directly above the note/fret number it represents the
duration for.  Duration letters with no fret number below them represent rests.  Multi-
bar rests are notated in the form Wxn, where n is the number of bars to rest for.  Low
melody durations appear below the staff

Tablature Legend
----------------
 h   - hammer-on
 p   - pull-off
 b   - bend
 pb  - pre-bend
 r   - bend release (if no number after the r, then release immediately)
 /\  - slide into or out of (from/to "nowhere")
 s   - legato slide
 S   - shift slide
 - natural harmonic
[n]  - artificial harmonic
n(n) - tapped harmonic
 ~   - vibrato
 tr  - trill
 T   - tap
 TP  - trem. picking
 PM  - palm muting
\n/  - tremolo bar dip; n = amount to dip
 \n  - tremolo bar down
 n/  - tremolo bar up
/n\  - tremolo bar inverted dip
 =   - hold bend; also acts as connecting device for hammers/pulls
 <> - volume swell (louder/softer)
 x   - on rhythm slash represents muted slash
 o   - on rhythm slash represents single note slash

Misc Legend
-----------
 |  - bar
||  - double bar
||o - repeat start
o|| - repeat end
*|  - double bar (ending)
 :  - bar (freetime)
 $  - Segno
 &  - Coda
Tempo markers -  = BPM(8/16=s8/s16), where s8 = swing 8ths, s16 = swing 16ths

Tap to rate this tab
# A B C D E F G H I J K L M N O P Q R S T U V W X Y Z