Song name
# A B C D E F G H I J K L M N O P Q R S T U V W X Y Z

Buckethead - Cannibal Holocaust tab

(Slow Solo)
I tabbed this using a live version.
You got to figure out the timing some hammer-ons are faster than others.

[------------------------------------------------------]
[------------------------------------------------------]
[-12--11--11h12----12h14p11--16--14--------------------] x2
[------------------------------------------------------]
[------------------------------------------------------]
[------------------------------------------------------]

[------------------------------------------------------]
[-15--15p13--13--15--13--12--13--17--------------------]
[------------------------------------------------------]
[------------------------------------------------------]
[------------------------------------------------------]
[------------------------------------------------------]

[------------------------------------------------------]
[-15--15p13--13--13h15--13--12--13---------------------]
[------------------------------------------------------]
[------------------------------------------------------]
[------------------------------------------------------]
[------------------------------------------------------]

[------------------------------------------------------]
[------------------------------------------------------]
[-12--11--11h12----12h14p11--16--14--------------------] x2
[------------------------------------------------------]
[------------------------------------------------------]
[------------------------------------------------------]

[------------------------------------------------------]
[-15--15p13--13--15--13--12--13--17--------------------]
[------------------------------------------------------]
[------------------------------------------------------]
[------------------------------------------------------]
[------------------------------------------------------]

[------------------------------------------------------]
[-15--15p13--13--13h15--13--12--13---------------------]
[------------------------------------------------------]
[------------------------------------------------------]
[------------------------------------------------------]
[------------------------------------------------------]
Tap to rate this tab
# A B C D E F G H I J K L M N O P Q R S T U V W X Y Z