Song name
# A B C D E F G H I J K L M N O P Q R S T U V W X Y Z

Buckethead - The Bronze Bat tab

D#||----------------------|----------------------|------------------------|
A#||----------------------|----------------------|------------------------|
F#||----------------------|----------------------|------------------------|
C#||-----------------9----|--8-------------------|------------------------|
G#||-------7----6---------|----------------------|-------10----11----9----|
D#||--6-------------------|-------2----5----9----|--8---------------------|
  
-------------------------|------------------------|-----------------------|
-------------------------|------------------------|-----------------------|
--11----10---------------|------------------------|-----------------------|
--------------10----9----|--12----11----8----9----|--10-------------------|
-------------------------|------------------------|--------9--------------|
-------------------------|------------------------|-------------0----1----|

that's it, it's pretty simple :P
Tap to rate this tab
# A B C D E F G H I J K L M N O P Q R S T U V W X Y Z