Guitaretab - guitar tabs
Song name
# A B C D E F G H I J K L M N O P Q R S T U V W X Y Z

Buckethead - Siege Engine tab

Song-Siege Engine
Artist-Buckethead

This is my first tab so please be kind, constructive criticism is good too
I used a live performance to help with most of the solo so the C.D. version will
probably sound different than this solo.

The video I used-http://www.youtube.com/watch?v=JsjYqm-2PDk


e|--------------------------------------------------------|
B|--------------------------------------------------------|
G|-----------------11-11-11--------------111111---------|
D|--------------------------------------------------------|x4
A|--14--14-14-14---9--9-9---10--10-10---9--9--9---------|
E|--12--12-12-12---7--7--7---8---8--8----7---7--7---------|

e|-----------------------------------------------------------------------------------------|
B|-12-12-12-12--10-10-10-10--9-9-8-8-9-9-3-3--12-12-12-12--10-10-10-10--9-9-8-8-9-9-3-3----|
G|-----------------------------------------------------------------------------------------|
D|-----------------------------------------------------------------------------------------|
A|-----------------------------------------------------------------------------------------|
E|-----------------------------------------------------------------------------------------|


e|-----------------------------------------------------------------------------------------------|
B|-----------------------------------------------------------------------------------------------|
G|-----------------------------------------------------------------------------------------------|
D|-99p7h9--------7----------910p9hp10--------------9-12p10h12--------7-------99p7h9--5---4--5|
A|-7-------7-9-10---109-7---7----------------5------7-----------7-9-10---10-9-7----------3---2-|
E|--------------------------------------3-5-7---7-3----------------------------------------------|
x2

e|-----------------------------------|
B|-----------------------------------|
G|--------7h9p7h9-----------7h9p7h9--|
D|----9-----------------12-----------|x4
A|-7-7-------------10-10-----------|
E|-----------------------------------|

e|--------------------------------------------------------|
B|--------------------------------------------------------|
G|-----------------11-11-11--------------111111---------|
D|--------------------------------------------------------|x4
A|--14--14-14-14---9--9-9---10--10-10---9--9--9---------|
E|--12--12-12-12---7--7--7---8---8--8----7---7--7---------|

e|----------------------------------------------------------------------------------|
B|-7h8p7---7h8p7------7h8p7----7h8p7------7h8p7------7h8p7-----7h8p7----7h8p7-------|
G|--------------------------------------7-------7--7-------7-7-------7--------7-----|
D|-------9-------9-9------9--------9------------------------------------------------|x3
A|----------------------------------------------------------------------------------|
E|----------------------------------------------------------------------------------|

e|------------------------------------------------------------------------------|
B|------------------------------------------------------------------------------|
G|------------------------------------------------------------------------------|
D|------------------------------------------------------------------------------|
A|------------------------------------------------------------------------------|
E|-0-12-7-0-12-7-0-12-7-0-10-5-0-12-7-0-12-7-0-12-7-0-10-7-0-12-7-0-12-7-0-12-7-|


e|---------------------------------------------------|
B|---------------------------------------------------|
G|---------------------------------------------------|
D|--------------------------------------2------------|
A|--------------------------------------2------------|
E|-0-10-7-0-10-8-0-10-8-0-10-7-0-10-0---0------------|

e|---------------------------|
B|-------------12-12-10-10---|
G|-12-12-12-12---------------|
D|-12-12-12-12---------------|x4
A|-10-10-10-10---------------|
E|---------------------------|

SOLO  (live)
e|-------------------------|-------------------------------|----------------------------|
B|-------------------------|-------------------------(17b)-|----------------------------|
G|-------------------------|-------------------------------|----------------------------|
D|--12h14-14---------12----|12h14-14--------12-------------|12h14-14---------12---------|
A|----------12-12h14-----10|--------12-12h14----10---------|--------12-12h14----10------|
E|-------------------------|-----------------------12------|------------------------12--|

e|---------------------------------|--------------------------------------------------------|
B|---------------------------------|--------------------------------------------------------|
G|------------12h14-15b1614p12----|-12h14-16--16-16h17p14--14-14h16p1212h14p11--7---7-9--|
D|--12h14-14--------------------14-|--------------------------------------------------------|
A|---------------------------------|--------------------------------------------------------|
E|---------------------------------|--------------------------------------------------------|

e|--------------------|------------------------------------|--------------------|
B|--------------------|------------------------------------|----------15/17-17--|
G|--9-11-12-14-12-11b-|--11-11h12h14b15--14-12-11----------|----12h14-----------|
D|--------------------|---------------------------12h14-14-|-14-----------------|
A|--------------------|------------------------------------|--------------------|
E|--------------------|------------------------------------|--------------------|

e|---------------------------------------------------------------------|
B|---15-17-19b19b19b-17-15---------------------------------------------|
G|14-------------------------12h14/16-16--16h17-19-17-16h17p16h17-----|
D|-----------------------------------------------------------------17--|
A|---------------------------------------------------------------------|
E|---------------------------------------------------------------------|

e|---------------------------------------------------------------------12-14-15-15b-15p14h15p14|
B|------------------------------------------------------15h17-17-------------------------------|
G|---------------------------------------------------------------------------------------------|
D|--12h14-14----------12------------------12h14/17-17------------------------------------------|
A|-----------12-12h14----10----------12h14-----------------------------------------------------|
E|--------------------------12-12h15-----------------------------------------------------------|


e|----------12----14b12h14p12h15p12h15p12h14p12------------------------------|
B|--15b--12----12---------------------------------15b-------------------------|
G|----------------------------------------------------14-14b-----12----12-14--|
D|------------------------------------------------------------14----14--------|
A|----------------------------------------------------------------------------|
E|----------------------------------------------------------------------------|


e|--------------------------------------------|
B|-------15b15b15b15b15b15b15p12--------------|
G|---14b-------------------------12-----------|
D|--------------------------------------------|
A|--------------------------------------------|
E|-----------------------------------3/15/0---|

e|----------------------------------------------|
B|--1717h19h20---------------------------------|
G|---------------16-19--------------------------|x4
D|---------------------17-19-17h19h21h22p17-----|
A|------------------------------------------19--|
E|----------------------------------------------|

e|-------------------------------------------------|------------------------------|
B|-------------------------------------------------|-12-13-15-17b--------17p15----|
G|-----------------------12-14-15b--------------12-|---------------------------12-|
D|-----------------12-14------------------14-12----|------------------------------|
A|--------------14---------------------------------|------------------------------|
E|--12-12h14h15------------------------------------|------------------------------|

e|---------------------------------------------------|
B|-----------------------------------17b-------------|
G|---15b-----------12-----------12-------------------|
D|-----------14-12-----14----14----------------------|
A|-----------------------------------------2/12/7-0--|
E|---------------------------------------------------|

e|----------------------------------------------|
B|--1717h19h20---------------------------------|
G|---------------16-19--------------------------|x3
D|---------------------17-19-17h19h21h22p17-----|
A|------------------------------------------19--|
E|----------------------------------------------|

e|---------------------------------------------12-14-15-15b--|
B|--17-17h19h20------------1212h13-15-15b15b----------------|
G|--------------16-19--12------------------------------------|
D|-----------------------------------------------------------|
A|-----------------------------------------------------------|
E|-----------------------------------------------------------|

e|-12h14h15-12h14h15--15p14p12------------|
B|------------------------------12h13h15--|
G|----------------------------------------|
D|----------------------------------------|x5
A|----------------------------------------|
E|----------------------------------------|

e|---------------------------------------------------------------------------------|
B|--10h12h13-13p12p10--------------------------------------------------------------|
G|----------------------9h11h12-12p11p9----9h11h12-12p11p9-------------------------|
D|--------------------------------------12----------------9h10h12-12p10p9----9-10--|
A|------------------------------------------------------------------------12-------|
E|---------------------------------------------------------------------------------|

e|-------------------------------------------------------------------------------------------|
B|-------------------------------------------------------------------------------------------|
G|-------------------------------------------------------------------------------------------|
D|------------------9h10h12-12p10p9-9h10h12-12p10p910h12h14-14p12p10-10h12h14-14p12p10------|
A|----------9h10h12--------------------------------------------------------------------------|
E|--9h10h12----------------------------------------------------------------------------------|
e|---12h14h15-12p14p15-12h14h15-12p14p15-12h14h15-12p14p15-----------------------------------|
B|----------------------------------------------------------15b--13-12-----------------------|
G|---------------------------------------------------------------------12-14-15b---15p14p12--|
D|-------------------------------------------------------------------------------------------|
A|-------------------------------------------------------------------------------------------|
E|-------------------------------------------------------------------------------------------|

e|---------------------------------------------------------------------|
B|--17b17p15----15----15------------------------------------17b-17b--|
G|------------16----16-----12b-12----------12b---12-14-16-19-----------|
D|--------------------------------14-12-14-----------------------------|
A|---------------------------------------------------------------------|
E|---------------------------------------------------------------------|

e|-------------------------------------------------------------------------------|
B|--17-19-20b-20p19p17-17p19p20-20h19h17-17h19h2013p12p10-10h12h13-13p12p10-----|
G|---------------------------------------------------------------------------9b--|
D|-------------------------------------------------------------------------------|
A|-------------------------------------------------------------------------------|
E|-------------------------------------------------------------------------------|
[ Tab from: http://www.guitaretab.com/b/buckethead/116760.html ]
e|---------------------------------------------------------------------------------------------|
B|---------------------------------------------------15h17h19-19p17p15----15h17h19-19p17p15----|
G|-9h11h12-12p11p9-9h11h12-12p11p9-9h11h12-12p11p9---------------------16-------------------16-|
D|---------------------------------------------------------------------------------------------|
A|---------------------------------------------------------------------------------------------|
E|---------------------------------------------------------------------------------------------|

e|-------------------17h19h20----------19h20h2222b-22b-22b-22b-22b-22b------|
B|-15b17b1917h19h20----------19h20h22---------------------------------------|
G|---------------------------------------------------------------------------|
D|---------------------------------------------------------------------------|
A|---------------------------------------------------------------------------|
E|---------------------------------------------------------------------------|

e|----------------------------------------------|
B|--1717h19h20---------------------------------|
G|---------------16-19--------------------------|x3
D|---------------------17-19-17h19h21h22p17-----|
A|------------------------------------------19--|
E|----------------------------------------------|

e|-------------------------------------------------------------|
B|---------------------------------------------------12--------|
G|---17h19h20----------14b-14b14b14b14p12-------14-----------|
D|--------------16-19------------------------14----------------|
A|-------------------------------------------------------------|
E|-------------------------------------------------------------|

e|---------------------------------------------------------------------------------12-15b-----|
B|--15b-15p13p12-15b-15p13p12-15b-15p13p12-15b-15p13p12-15b-15p13p12-15b-15p13p12-------------|
G|--------------------------------------------------------------------------------------------|
D|--------------------------------------------------------------------------------------------|
A|--------------------------------------------------------------------------------------------|
E|--------------------------------------------------------------------------------------------|

e|-15p14p12-15-15p14-12------------------------------------------------------------------------|
G|-----------------------13p12p10--------------------------------------------------------------|
B|---------------------------------12p11p9-12-12p11p9------------------------------------------|
D|-----------------------------------------------------12p11p9------------------------9h11h12--|
A|--------------------------------------------------------------12p10p9--------9h10h12---------|
E|----------------------------------------------------------------------12p10p9----------------|
e|---------------------------------------------------------------------------------------------|
B|---------------------------------------------------------------------------------------------|
G|-11-11-11-12-12p11p9-11-11-11-12-12p11p9-11-11-11-12-12p11p9-11/16b-12-14-12h14p12-----------|
D|---------------------------------------------------------------------------------------------|
A|---------------------------------------------------------------------------------------------|
E|---------------------------------------------------------------------------------------------|

e|---------------------------|
B|-----------------12-1315b-|
G|-----------12h14-----------|
D|--14p12h14-----------------|
A|---------------------------|
E|---------------------------|

e|--------------------------------------------------------------------------------------------|
B|--5-5h7h8----------------------5-5h7h8-------------------------------10b-10-8-10-7h8p7------|
G|----------4-7--------------------------4-7----------------------9-9--------------------7----|
D|--------------5-7-5h7h9h10p5----------------5-2b5b-5-5-7-7-9-9-----------------------------|
A|-----------------------------7--------------------------------------------------------------|
E|--------------------------------------------------------------------------------------------|

e|-----------------------------------------------------------------------------------------------|
B|-----------------------------------------------------------------------------------------------|
G|---7----9b-9-7------------------------7b-7-9-12-11-9-7-7/9--9-12-11----9-12-11----9-12-11---9\7|
D|-9----9-------9-7-5-5h7p5------------------------------------------12---------12---------12----|
A|--------------------------7---7-10-7----------------------------------------------------------|
E|-----------------------------------------------------------------------------------------------|

e|----------------------------------------------------------------------10h12-10h12-10h12-10h12|
B|-----10b10p8-7h8p7-------7h8p7-7h8p7-8h10p8-8h10p8-10h12p10-10h12p10------------------------|
G|7h9-----------------7---7--------------------------------------------------------------------|
D|---------------------------------------------------------------------------------------------|
A|---------------------------------------------------------------------------------------------|
E|---------------------------------------------------------------------------------------------|

e|--10h12-10h12--------10h12---------10h12--------10h12---------10h12-7h10---|
B|---------------10h12--------10h12---------10h12--------10h12---------------|
G|---------------------------------------------------------------------------|
D|---------------------------------------------------------------------------|
A|---------------------------------------------------------------------------|
E|---------------------------------------------------------------------------|

e|--12p10p8-12p10p8-12p10p8-12p10p8-12p10p8-12p10p8-12p10p8-12p10p8-12p10p8-12p10p8-|
B|----------------------------------------------------------------------------------|
G|----------------------------------------------------------------------------------|x2
D|----------------------------------------------------------------------------------|
A|----------------------------------------------------------------------------------|
E|----------------------------------------------------------------------------------|

e|-----------------------------------|
B|-5-5h7h8---------------------------|
G|-----------4-7---------------------|
D|----------------5-7-5h7h9h10p5-----|x3
A|--------------------------------7--|
E|-----------------------------------|

e|------------------------------------------------------------------7h9h10-7h9h10-10b----------|
B|----------------------------------------------------7h9h10-7h9h10----------------------------|
G|----------------------------------------6h8h9-6h8h9------------------------------------------|
D|---------------------------4h6h7-4h6h7-------------------------------------------------------|
A|--------------4h6h7-4h6h7--------------------------------------------------------------------|
E|--4h5h7-4h5h7--------------------------------------------------------------------------------|
e|-12h14h15-15p14p12-12b-----------------------------------------------------------------------|
B|------------------------13p12p10-10h12h13-13p12p10-10h12h13----------------------------------|
G|------------------------------------------------------------12p11p9-9h11h12-12p11p9-9h11h12--|
D|---------------------------------------------------------------------------------------------|
A|---------------------------------------------------------------------------------------------|
E|---------------------------------------------------------------------------------------------|

e|------------------------------12h14h15---12h14h15p14p12----------12h14h15p14p12---------------|
B|---------------------12h13h15---------------------------12h13h15----------------12h13h15------|
G|------------11h12h14--------------------------------------------------------------------------|
D|-9/11h12h14-----------------------------------------------------------------------------------|
A|----------------------------------------------------------------------------------------------|
E|----------------------------------------------------------------------------------------------|

e|-12h14h15p14p12-12h14h15p14p12----------12h14h15-----------12h14h15---------------------------|
B|-------------------------------12h13h15-----------12h13h15----------12h13h15--15b-15p13p12---|
G|----------------------------------------------------------------------------------------------|
D|----------------------------------------------------------------------------------------------|
A|----------------------------------------------------------------------------------------------|
E|----------------------------------------------------------------------------------------------|

e|---------------------------------17b-17--15-12-15-15b-------------------------------------------|
B|-----------------------------15-----------------------17-15-12-15-12-15b------------------------|
G|-14b14b14b14b14p12----12---------------------------------------------------14-12----12-12-12h14-|
D|-------------------14----14------------------------------------------------------14-------------|
A|------------------------------------------------------------------------------------------------|
E|------------------------------------------------------------------------------------------------|

e|-------------------------------15b--15-15p12----------------------------------------|
B|---------------------------------------------15/17-17-17-17-17p15h12-12h15----------|
G|-16-16-16-16p14-12-14------------------------------------------------------16-14-12-|
D|----------------------14-14---------------------------------------------------------|
A|------------------------------------------------------------------------------------|
E|------------------------------------------------------------------------------------|

e|-------------------------------------------------------------------------------------|
B|-------------------------------------------------------------------------------------|
G|-12-12-11-9------------------------------12-12h14p12----12h14p12---------------------|
D|------------12-14-12---------------12-14-------------14----------14------------------|
A|---------------------14-12--12-14----------------------------------------------------|
E|-------------------------------------------------------------------------------------|

e|-----------------------------------------------------------------|
B|--1717h19h20---------------------------------1717h19h20--------|
G|---------------16-19--------------------------------------16-19b-|
D|---------------------17-19-17h19h21h22p17------------------------|
A|------------------------------------------19---------------------|
E|-----------------------------------------------------------------|

e|-19p17p15p12-12h15h17h19-|  |-12b--------------------------------------------------------|
B|-------------------------|  |-----10h12h13-12h13p12p10-----------------------------------|
G|-------------------------|x6|--------------------------12p11p9---------------------------|
D|-------------------------|  |----------------------------------12p11p9-------------------|
A|-------------------------|  |------------------------------------------12p10p9-----------|
E|-------------------------|  |--------------------------------------------------12p10p9---|

e|-------------------------|--------------------------------|  |--------7h8h10-10-10p8p7--------|
B|-------------------------|5h7h8p7p5-------5h7h8p7p5-------|  |-7h8h10------------------10p8p7-|
G|-------------------4h5h7-|----------7p5p4-----------7p5p4-|  |--------------------------------|
D|-------------4h6h7-------|--------------------------------|x2|--------------------------------|
A|-------4h6h7-------------|--------------------------------|  |--------------------------------|
E|-4h5h7-------------------|--------------------------------|  |--------------------------------|

e|----------11h12h14-----15b15b15b15b15b15b15b---------------|
B|-11h12h14----------14b-------------------------------------|
G|-----------------------------------------------------------|
D|-----------------------------------------------------------|
A|-----------------------------------------------------------|
E|-----------------------------------------------------------|

b= bend
h= hammer on
p= pull off
/ \= slide
Related for Siege Engine tab