Song name
# A B C D E F G H I J K L M N O P Q R S T U V W X Y Z

Buckethead - Pink Eye tab

Buckethead
Pink Eye
Albino Slugs
Eb Ab Db Gb Bb Eb

|-------------------------------------------------------|
|-------------------------------------------------------|
|-------------------------------------------------------|
|-------------------------------------------------------|
|--6---6---6------5h6p5------6---6---6------5h6p5-------|
|--4---4---4-3h4p3-----5h6p544---4---4-3h4p3-----5h6p5--|

need help wit the sliding riff and the little chord thing


here's da part after he just kinda messes around wit the note
|-------------------------------------------|
|-------------------------------------------|
|-------------------------------------------|
|-------------------------------------------|
|-------------------------------------------|
|--5--5--55-5--5--5--55-5--5--5--55-55-55-5-|

then this a few times
                 |killswitch
|---------------------------|
|---------------------------|
|---------------------------|
|--------------5--55555-----|
|---5-5-5--55--3--33333-----|
|---3-3-3--33---------------|

then the part that sounds a little like that 1 part in hills have headcheese (pick each 
its not a sweep)

|----------------------------------------19-18------|
|-----------------------------18-17---17------------|
|------------------17-16---16-------16--------------|
|-------15-14---15-------15-------------------------|
|----13-------14------------------------------------|
|--12-----------------------------------------------|

there

the stuff i don't have tabbed out i need help with
Tap to rate this tab
# A B C D E F G H I J K L M N O P Q R S T U V W X Y Z