Song name
# A B C D E F G H I J K L M N O P Q R S T U V W X Y Z

Buckethead - Bloody Rainbow Spiraling Sherbet Scoop tab

-------------------------------------------------------------------------------
       Bloody Rainbow Spiraling Sherbet - Buckethead
-------------------------------------------------------------------------------
Tabbed by: jpsk8er114

Tuning:Standard

e|---------------------------------------------------------------------------|
B|---------------------------------------------------------------------------|
G|---------------------------------------------------------------------------|
D|---------------------------------------------------------------------------| x2
A|-------1-------1-1--------------1-------1-1--------------------------------|
E|-0-2-0---0-2-0-----0-2-0--0-2-0---0-2-0------------------------------------|

e|---------------------------------------------------------------------------|
B|---------------------------------------------------------------------------|
G|---------------------------------------------------------------------------|
D|---------------------------------------------------------------------------| x4
A|-4-5-4-7~-4-5-4-4/7-4/7-4-5-4~-4-5-4-7~-4-5-4-4/7-4/7----------------------|
E|-2-3-2-5~-2-3-2-2/5-2/5-2-3-2~-2-3-2-5~-2-3-2-2/5-2/5----------------------|

Tap to rate this tab
# A B C D E F G H I J K L M N O P Q R S T U V W X Y Z